Archive, a >> abn

breekpunt tab

 my email: kevinbovyn@hotmail.com

This is a Dutch song from the Belgian hip hop band ABN.

Guitar:

Capo on second fret.
Normal tuning.

e   -------------------------------------------------------------|
b   ----------------1----------------------------1---------------|
g   ------------2------2---2----------------2------2---2---------|
d   ---------2---2-------2--------------2----2-------2-----------|
a   ------0------------------------------------------------------|
e   ----------------------------------0--------------------------|

e   -------------------------------------------------------------|
b   ----------------1----------------------------1---------------|
g   ------------2------2---2----------------2------2---2---------|
d   ---------2---2-------2--------------2----2-------2-----------|
a   -------------------------------------------------------------|
e   ------1---------------------------0--------------------------| 

Related Files