Archive, a >> alesana

apology ver2 btab

 Song: Apology

Band: Alesana

Album: On Frail Wings Of Vanity And Wax / Try This With Your Eyes Closed

Tab By: Underground_D**
 (I Get this at: Cifraclub.com.br)

Corrected by: PsychoGAA

Tuning: Standart (EADG)


1.
Intro:

G|-------------------------|
D|-------------------------|
A|-------------------------|
E|-(3)~--(5)~--(7)~--(7)\--| 4x


2.
\\" You're Everything To Me\\"  0:47 x3

G|-------------------------|
D|-------------------------|
A|-------------------------|
E|-33-3--55-5--77-7--77-7--| 4x

G|--------------------|
D|--------------------|
A|--------------------|
E|-33-3--55-5--7~-----|


3.
\\" And to think...\\" 

G|----------------------------------|
D|----------------------------------|
A|----------------------------------|
E|-7/3~-5~----7~---7/3~-------------|


4.
\\" This is the end!!\\" 

G|-------------|
D|-------------|
A|-------------|
E|-5555x-------|


5.    (Chorus)
\\" I'll Loose Myself in Anguish..\\" 

G|---------------------------------------------------------------------|
D|---------------------------------------------------------------------|
A|---------------------------------------------------------------------|
E|-77777777777-55555555555555555555-333333333333-55555555555555555555--|<-play the 5 
than the others


6.
\\" I Feel So Numb to See..\\" 

G|-------------------------|
D|-------------------------|
A|-------------------------|
E|-33-3--55-5--77-7--77-7--| 2x


G|-------------------------|
D|-------------------------|
A|-------------------------|
E|-3333--5555--7777--7777--|

G|----------------------|
D|----------------------|
A|----------------------|
E|-3333--5555--2~-1/14--|


Chorus
 -just like 5


8.
      - 2:44

G|----------------|
D|-7/9~-9-7-------|
A|---------9-7----|
E|----------------|


9.
\\" Urgency overwhelms..\\"  2:52

G|-------------------------|
D|-------------------------|
A|-------------------------|
E|-33-3--55-5--77-7--77-7--|


10.
\\" Must Restrain..\\"  2:59

G|-------------------|
D|-------------------|
A|-------------------|
E|-7~----7/3~----5~--|


11.
     - 3:10
G|---------------------------------------------------------------|
D|---------------------------------------------------------------|
A|---------------------------------------------------------------|
E|-3333-3333-3333-333-5555-5555-5555-555-2222-2222-2222-222------|

G|--------------------------------------------------------------------------|
D|--------------------------------------------------------------------------|
A|--------------------------------------------------------------------------|
E|-3333-3333-3333-333-5555-5555-5555-555-7777-7777-7777-777-2222222222222~--|

-Chorus-


13.
\\" In My Mind..\\"  3:59

G|----------------------------------|
D|----------------------------------|
A|----------------------------------|
E|-777-777-333-333-555-555-222-222--|


14.
\\" Last goodbye\\"  4:12

E|-7~ | 

Related Files