Archive, a >> aly and aj

shine tab

 Hey this is a song off their new deluxe version of into the rush. It's fun to play with
else doing acoustic 2. This is 100% accurate. Now remember when I put how may times you
it's an estimate so you have to listen to the song. Shine!

Acoustic 1 and 2

Intro: Palm-mute and between the chords lightly place your fingers over all the strings
strum. I know there's a name for that but you'll have to listen to the song to see what
mean.
---x-x----x-x----x-x----x-x----x-x----x-x----x-x----x-x-|
---x-x----x-x----x-x----x-x----x-x----x-x----x-x----x-x-|
---2-2----2-2----2-2----2-2----2-2----2-2----2-2----2-2-| Repeat through intro
---2-2----2-2----3-3----3-3----2-2----2-2----3-3----3-3-|
---0-0----0-0----0-0----0-0----0-0----0-0----0-0----0-0-|
---0-0----0-0----0-0----0-0----0-0----0-0----0-0----0-0-|


Pre-Chorus: palm mute between some (listen to the song u'll figure it out)
---1-----0-----0-----1----1-----0---0---0----|(play that last chord 11 times)
---1-----1-----1-----1----1-----1---1---1----|
---2-----2-----0-----2----2-----2---2---0----|
---3-----2-----2-----3----3-----2---2---2----|
---0-----0-----3-----0----0-----0---0---3----|
---0-----0-----0-----0----0-----0---0---0----|


Acoustic 1
Chorus: palm mute and listen to song for rythem and muting
-----1-----|
-----1-----|    X 14
-----2-----|
-----3-----|
-----0-----|
-----0-----|


-----0-----|
-----1-----|   X 7
-----2-----|
-----2-----|
-----0-----|
-----0-----|

-----0-----|
-----1-----|
-----0-----|  X 7
-----2-----|
-----3-----|
-----0-----|

Repeat chorus again then the intro


Acoustic #2 plays chorus like this

chorus:
---1---|
---1---|   X 14
---2---|
---3---|
---0---|
---0---|

---x---|
---x---|
---2---|  X 7
---2---|
---0---|
---x---|

---x--
---x--
---5--|
---5--|
---x--| X 7
---x--


Bridge: Play each chord 4 not three times as written.  At least thatÂ’s my opinion but
to the song. Acoustic  2 can play the second part but it can also play the first one along
acoustic 1
Acoustic 1
------x----x----x----x----x----x----x----x----x---x----x----x-----|
------x----x----x----x----x----x----x----x----x---x----x----x-----|
------2----2----2----4----4----4----5----5----5---x----x----x-----| Repeat 2x
------2----2----2----2----2----2----2----2----2---3----3----3-----|
------x----x----x----x----x----x----x----x----x---3----3----3-----|
------x----x----x----x----x----x----x----x----x---x----x----x-----|

Acoustic 2
e|xxxxxxxxxxxxxxxxxxxxxxxxxxxxxxxxxxxxxxxxxxxxxxx|
g|xxxxxxxxxxxxxxxxxxxxxxxxxxxxxxxxxxxxxxxxxxxxxxx|
d|xxxxxxxxxxxxxxxxxxxxxxxxxxxxxxxxxxxxxxxxxxxxxxx|
a|-0-0-0-0-2-2-2-2-3-3-3-3-xxxxxxxxxxxxxxxxxxxxxxxxxx--|
e|xxxxxxxxxxxxxxxxxxxx-1-1-1-1-xxxxxxxxxxxxxxxxxxxx----|


Chorus 2: This is when they get to a higher pitch.

-----3-------|
-----3-------|
-----0-------|  X 14
-----0-------|
-----2-------|
-----3-------|

----2--------|
----3--------| X 7
----2--------|
----x--------|
----x--------|
----x--------|

----0--------|
----3--------|
----3--------|
----3--------| X 7
----3--------|
----0--------|

End on: Fade out very soft and get slower
-----2-------|
-----3-------|
-----2-------|
-----x-------|
-----x-------|
-----x-------| 

Related Files