Archive, a >> anti-flag

id tell you but ver2 tab

 *palmmute
!pinch harmonic
lr let ring

Intro:

Guitar 1-

E|----------------------------------------------------------------|
B|----------------------------------------------------------------|
G|-11-11-------11-11----------10-9--------10-9-----------10-9-----|
D|-------10-10-------10-10-11-------11-11------11-11-11-----------|
A|----------------------------------------------------------------|
E|----------------------------------------------------------------|

Guitar 2-

E|-------------------------------------------------------------|
B|-------------------------------------------------------------|
G|-6-----------------4-----------------------------------------|
D|-6-----2------7----4-----------------------------------------|
A|-4-(x7)-2------7----2-(x7)-----------------------------------|
E|--------0-(x7)-5-(x7)----------------------------------------|

Verse:

Guitars 1 & 2-listen to rhythm to get it right

e|--------------------------------------------------------------|
b|--------------------------------------------------------------|
g|-6-6--------------------4-------------------------------------|
d|-6-6------2-----7-7-----4-------------------------------------|
a|-4-4-(x7)--2-(x8) 7-7-(x7)-2-(x7)-----------------------------|
e|----------0-----5-5-------------------------------------------|
         *                          *
Pre-chorus:

Guitars 1 & 2-

E|-----------------------------------------------------------|
B|-----------------------------------------------------------|
G|-----------------------------------------------------------|
D|-7-7-7-7-7-7-7s11-11-11-9-9-9-9----2-1---------------------|
A|-7-7-7-7-7-7-7s11-11-11-9-9-9-9--4-------------------------|
E|-5-5-5-5-5-5-5s-9--9--9-7-7-7-7----------------------------|

Chorus:

Guitar 1-

E|-------------------------------------------------------------|
B|-------------------------------------------------------------|
G|-6-----------------4-----------------------------------------|
D|-6-----2------7----4-----------------------------------------|
A|-4-(x4)-2------7----2-(x4)-----------------------------------|
E|--------0-(x4)-5-(x4)----------------------------------------|

Guitar 2-

E|-------------------------------------------------------------|
B|-------------------------------------------------------------|
G|-6-----------------4-----------------------------------------|
D|-6-----2------7----4---2-1-----------------------------------|
A|-4-(x4)-2------7----2-4--------------------------------------|
E|--------0-(x4)-5-(x4)----------------------------------------|

then-

Guitars 1&2-

E|------------------------------------------------------------|
B|------------------------------------------------------------|
G|----------------------------14-14-14-(x4)-13----------------|
D|-11-11-11-(x4)-14-14-14-(x4)--------------------------------|
A|------------------------------------------------------------|
E|---------- -------------------------------------------------|
      *     *               *     *               *     *
     (whoa, whoa)

(drums)

Solo:

Guitar 1-

E|-----------------------------------------------------------------------------------|
B|-----------------------------------------------------------------------------------|
G|-13b14-x8-13b14------------------------------------13-------13-------13------13----|
D|-----------------11-11-11-11-14-11-14-11-14-11-11----11-11----11-11---11-11--------|
A|-----------------------------------------------------------------------------------|
E|-----------------------------------------------------------------------------------|
                           !
E|----------------------------------------------------------------------------------|
B|---------------15-15--------------------15-15------------------------16b17b16-----|
G|-13-10-13-10---------11-11-12-12-------------11-12-12-----------------------------|
D|-----------------------------------14-14----------------14-14--14-14--------------|
A|----------------------------------------------------------------------------------|
E|---------- -----------------------------------------------------------------------|

E|------------------------------------------------------------|
B|-------16b17b16-------16b17b16-------16b17b16---------------|
G|------------------------------------------------------------|
D|-14-14----------14-14----------14-14------------------------|
A|------------------------------------------------------------|
E|---------- -------------------------------------------------|

E|---------------------------------------------------------------------|
B|---------------------------------------------------------------------|
G|-16-16-14-14-13-13-------14-14-13-13-13-13--------14-13-9-11-9-------|
D|--------------------14-14--------------------14-14-------------------|
A|---------------------------------------------------------------------|
E|---------- ----------------------------------------------------------|

Guitar 2-

E|-------------------------------------------------------------|
B|-------------------------------------------------------------|
G|-6-----------------4-----------------------------------------|
D|-6-----2------7----4-----------------------------------------|
A|-4-(x8)-2------7----2-(x8)-----------------------------------|
E|--------0-(x8)-5-(x8)----------------------------------------|

Bridge:

Guitar 1 or 2-
E|------------------------------------------------------------|
B|------------------------------------------------------------|
G|-8-9-6lr----------------------------------------------------|
D|------------------------------------------------------------|
A|------------------------------------------------------------|
E|---------- -------------------------------------------------|
\\" ...I love my friends my family...\\" 

then-

Guitar 1 or 2-
E|-----------------------------------------------------------------|
B|-----------------------------------------------------------------|
G|-8-10-(try to get feedback on last note)-------------------------|
D|-----------------------------------------------------------------|
A|-----------------------------------------------------------------|
E|---------- ------------------------------------------------------|
\\" .....................................................................BECAUSE\\" 

Extended Chorus bit-

Guitars 1&2-

E|------------------------------------------------------------|
B|------------------------------------------------------------|
G|----------------------------14-14-14-(x4)-13-13-13-(x4)-----|
D|-11-11-11-(x4)-14-14-14-(x4)--------------------------------|
A|------------------------------------------------------------|
E|---------- -------------------------------------------------|
      *     *               *     *                   *     *                *     *
     (whoa, whoa)

End:

Guitars 1 & 2-
E|-----------------------------------------------------------|
B|-----------------------------------------------------------|
G|-6-8-9-11-6------------------------------------------------|
D|-6-8-9-11-6------------------------------------------------|
A|-4-6-7--9-4------------------------------------------------|
E|---------- ------------------------------------------------|

Thats it the solo might need improvisation though.

Lyrics:

Your invasion was a crime, your righteous explanations lies
Kicking in our doors, raids at night, won't win our hearts, you've lost your minds
Your killing of my family, did not make a fan out of me
If this is what your freedom reaps, keep it for the United States
I'd tell you all these things but I can't speak because...

I'm dead, I'm dead, my life is no more, I'm dead, I'm dead, your bullets cut into my flesh

I loved to read write poetry. I loved my friends my family. I loved the sand and loved the sea.
The water splashing over me, now i will haunt in you in your dreams, never another restful sleep.
I'll forever be by your side. In life your victim death, your bride. My memory will 
you when awake or asleep because...

I'm dead, I'm dead, my life is no more, I'm dead, I'm dead, your bullets cut into my 
your cluster bombs ripped me to shreds.