Archive, a >> anti-flag

vieques puerto rico bikini revisited btab

 Band: Anti-Flag
Song: \\" Vieques, Puerto Rico: Bikini Revisited\\" 
By: Albert Associate

This tab was the one that was here but I change the chorus and the verse 1 because it 
better that way. If my corrections are wrong please e-mail at albert_garza_577@hotmail.com

Intro 3X
Gb|--------------------------|
Db|--------------------------|
Ab|-0-5~---7~---8~---10~-8-7-|
Eb|--------------------------|

Verse 1 4X
Gb|--------------------------------------------------|
Db|-----7-5--------55-7-8-----8-7-----------1010-8-7-|
Ab|-55-5-5-5--77-7--------88-8-8-8--1010-10----------|
Eb|--------------------------------------------------|

Chorus 4X
Gb|---------------|-----7----7--------|-------10--10-|------------|
Db|------10-8-7---|------10---10-7----|--------------|------88----|
Ab|-88-8-------10-|---7-----------10--|-55-7-8---8---|----8----88-|
Eb|---------------|-8-----------------|--------------|-6-6--------|

Verse 2 (changes each time)
Gb|----------------------------------------------|
Db|------7-8-77-88-77-55-77-55----55-------------|
Ab|-5555-----------------------88----88-77-88-77-|
Eb|----------------------------------------------|

Gb|----------------55-------------------------------|
Db|----77-88-77-88----88-77-88-77-55-77-55----------|
Ab|-55-------------------------------------88-77-88-|
Eb|-------------------------------------------------|

Gb|----------------55----55-77-55-------------------|
Db|----77-88-77-88----88----------88-77-88-77-55----|
Ab|-55-------------------------------------------88-|
Eb|-------------------------------------------------|

Gb|-------------------------------------------------|
Db|----77-88-77-88-77-55----55----------------55-77-|
Ab|-55-------------------88----88-77-88-77-55-------|
Eb|-------------------------------------------------|

Pre-chorus 2x
Gb|--------------------------------------------------|
Db|-----7-5--------55-7-8-----8-7-----------1010-8-7-|
Ab|-55-5-5-5--77-7--------88-8-8-8--1010-10----------|
Eb|--------------------------------------------------|

Chorus 4X
Gb|---------------|-----7----7--------|-------10--10-|------------|
Db|------10-8-7---|------10---10-7----|--------------|------88----|
Ab|-88-8-------10-|---7-----------10--|-55-7-8---8---|----8----88-|
Eb|---------------|-8-----------------|--------------|-6-6--------|

Breakdown
Gb|-------------------------------------------|
Db|------77-55----5577----8877--------1010-88-|
Ab|-5555------7777----8888----10101010--------|
Eb|-------------------------------------------|

Gb|------------------------------------|
Db|------77-55----5577----8877----8877-|
Ab|-5555------7777----8888----8888-----|
Eb|------------------------------------|

Gb|-------------------------------------------|
Db|------77-55----5577----8877--------1010-88-|
Ab|-5555------7777----8888----10101010--------|
Eb|-------------------------------------------|

4th Time
Gb|-----------------------------9-10-|
Db|-----8877------5577---7-8-10------|
Ab|-5555-----7777------8-------------|
Eb|----------------------------------|

Gb|-------------------------------------------|
Db|------77-55----5577----8877--------1010-88-|
Ab|-5555------7777----8888----10101010--------|
Eb|-------------------------------------------|

Gb|-----------------------------9-10--------------14-15-|
Db|-----8877------5577---7-8-10----------14-15-17-------|
Ab|-5555-----7777------8--------------15----------------|
Eb|-----------------------------------------------------|

Outro 3X
Gb|-------------------------------------------|
Db|------8877-----5577----8877--------1010-88-|
Ab|-5555------7777----8888----10101010--------|
Eb|-------------------------------------------|

Last time
Gb|-------------------------------|
Db|------8877-----5577----8877----|
Ab|-5555------7777----8888----10~-|
Eb|-------------------------------|