Archive, a >> arctic monkeys

still take you home btab

 artist: arctic monkeys
song: still take you home 
tabbed by: mikethecoug

intro
-----
G|-------------------|
D|-------------------|
A|------5-4------5-4-|
E|--6-6-----6-66-----|

verse
-----
G|-------------------------------|
D|-------------------------------|
A|-------------6666666-9999-8888-|
E|-66666666666-------------------|

chorus
------
G|---------------------------|
D|-------8-6-----------------|
A|-66666-----8-44444-6/8-6---|
E|-------------------------8-|

interlude
---------                     x2
G|-----------------------------|
D|-----8-8-6-------------------|
A|-----------8-7-6-6-99-9-99-8-|
E|-6-6-------------------------|

G|------------------------------|
D|----8-6-----------------------|
A|-6------8--4-6/8-6------------|
E|------------------8--6-4-6-4~-|

G|-------------------|
D|----6/8-6----------|
A|-6--------8-4~-----|
E|-------------------|

intro
chorus
verse

end on E|6



have fun.