Archive, a >> as cities burn

of want and misery the nothing that kills solo ver2 tab

 Band.  AS CITIES BURN
Song.  Of Want And Misery The Nothing That Kills
Album. Son I Loved You At Your Darkest

STANDARD TUNING

PHRYGIAN MODE SOLO


3.18

e----------------------------5----5-7---7-7-7----|
B------------5-7---------5-7----------7----------|
G--4---4-6-7-------4-6-7-------------------------|
D------------------------------------------------|
A------------------------------------------------|
E------------------------------------------------|


3.25

--7p5-5-5--9p7-7-7-----------------------|
---------------------12p10-10p8-8p7-7-7--|
-----------------------------------------|
-----------------------------------------|
-----------------------------------------|
-----------------------------------------|


3.29

---------10----------10--------10---------------|
--7-8-10------7-8-10----7-8-10----7-12----------|
------------------------------------------------|
------------------------------------------------|
------------------------------------------------|
------------------------------------------------|


3.32

----------17------------17----------12h14p12----------|
-12-14-15------12-14-15-----12h14h15--------14h15p14--|
------------------------------------------------------|
------------------------------------------------------|
------------------------------------------------------|
------------------------------------------------------|


3.35

------------------------------------------------|
--12b~p10-8h10p8-7-----7--7b--7p5---5b~p3b~-----|
------------------------------------------------|
------------------------------------------------|
------------------------------------------------|
------------------------------------------------|

Ends at 3.45

KEY:
p  =  pull off
h  =  hammer on
b  =  bend to a higher note
b~ =  bend to a higher note, then back to original note


Hope you think it's accurate.
Please rate. And Comment.
And check out my other tabs.
And rate. And Comment. Them too.
Cheers.