Archive, a >> ataris

new years day tab

 The Ataris - New Year's Day
Album - Welcome To The Night

Standard Tuning.

INTRO (Heavy Distortion/|Fuzz)

E|-----------------------------------------------------|
B|-----------------------------------------------------|
G|-----------------------------------------------------|
D|-----------------------------------------------------| X2
A|--555555-888--------88-------------------------------|
E|------------555555-----66666666--33333333------------|

Verse (Heavy Distortion/|Fuzz)


E|-----------------------------------------------------|
B|-----------------------------------------------------|
G|-----------------------------------------------------|
D|-----------------------------------------------------|
A|--555555-888--------88-------------------------------|
E|------------555555-----66666666--33333333------------|


E|-----------------------------------------------------|
B|-----------------------------------------------------|
G|-----------------------------------------------------|
D|-----------------------------------------------------|
A|--555555-888--------88-------------------------------|
E|------------555555-----66666666--333-----------------|

Chorus  (Medium Distortion)


E|-------------------------------------------------------------------------------------|
B|-------------------------------------------------------------------------------------|
G|---10-10-10-10-10-10-10-10-10-10-10-10-10-10-10-10---9-9-9-9-9-9-9-9-9-9-9-9-9-9-9-9-|
D|---10-10-10-10-10-10-10-10-10-10-10-10-10-10-10-10---9-9-9-9-9-9-9-9-9-9-9-9-9-9-9-9-|
A|---8--8--8--8--8--8--8--8--8--8--8--8--8--8--8--8----7-7-7-7-7-7-7-7-7-7-7-7-7-7-7-7-|
E|-------------------------------------------------------------------------------------|
                                                                                         
    X2
E|-------------------------------------------------------------------------------------|
B|-------------------------------------------------------------------------------------|
G|---7-7-7-7-7-7-7-7-7-7-7-7-7-7-7-----------------------------------------------------|
D|---7-7-7-7-7-7-7-7-7-7-7-7-7-7-7---8-8-8-8-8-8-8-8-8-8-8-8-8-8-8-8-------------------|
A|---5-5-5-5-5-5-5-5-5-5-5-5-5-5-5---8-8-8-8-8-8-8-8-8-8-8-8-8-8-8-8-------------------|
E|-----------------------------------6-6-6-6-6-6-6-6-6-6-6-6-6-6-6-6-------------------|

Verse


E|-----------------------------------------------------|
B|-----------------------------------------------------|
G|-----------------------------------------------------|
D|-----------------------------------------------------|   X4
A|--555555-888--------88-------------------------------|
E|------------555555-----66666666--33333333------------|

Chorus


E|-------------------------------------------------------------------------------------|
B|-------------------------------------------------------------------------------------|
G|---10-10-10-10-10-10-10-10-10-10-10-10-10-10-10-10---9-9-9-9-9-9-9-9-9-9-9-9-9-9-9-9-|
D|---10-10-10-10-10-10-10-10-10-10-10-10-10-10-10-10---9-9-9-9-9-9-9-9-9-9-9-9-9-9-9-9-|
A|---8--8--8--8--8--8--8--8--8--8--8--8--8--8--8--8----7-7-7-7-7-7-7-7-7-7-7-7-7-7-7-7-|
E|-------------------------------------------------------------------------------------|
                                                                                         
    X2
E|-------------------------------------------------------------------------------------|
B|-------------------------------------------------------------------------------------|
G|---7-7-7-7-7-7-7-7-7-7-7-7-7-7-7-----------------------------------------------------|
D|---7-7-7-7-7-7-7-7-7-7-7-7-7-7-7---8-8-8-8-8-8-8-8-8-8-8-8-8-8-8-8-------------------|
A|---5-5-5-5-5-5-5-5-5-5-5-5-5-5-5---8-8-8-8-8-8-8-8-8-8-8-8-8-8-8-8-------------------|
E|-----------------------------------6-6-6-6-6-6-6-6-6-6-6-6-6-6-6-6-------------------|

Bridge (Not Of this but it's based around the right notes)


E|-----------------------------------------------------|
B|-----------------------------------------------------|
G|---------10-10-----------10-10------7-7--------------|      X2
D|-----10--------------10-----------7------------8-8---|
A|--8----------------7------------5-----------8--------|
E|------------------------------------------6----------|


Verse (Heavy Distortion/|Fuzz)


E|-----------------------------------------------------|
B|-----------------------------------------------------|
G|-----------------------------------------------------|
D|-----------------------------------------------------|
A|--555555-888--------88-------------------------------|
E|------------555555-----66666666--33333333------------|


E|-----------------------------------------------------|
B|-----------------------------------------------------|
G|-----------------------------------------------------|
D|-----------------------------------------------------|
A|--555555-888--------88-------------------------------|
E|------------555555-----66666666--333-----------------|

Chorus


E|-------------------------------------------------------------------------------------|
B|-------------------------------------------------------------------------------------|
G|---10-10-10-10-10-10-10-10-10-10-10-10-10-10-10-10---9-9-9-9-9-9-9-9-9-9-9-9-9-9-9-9-|
D|---10-10-10-10-10-10-10-10-10-10-10-10-10-10-10-10---9-9-9-9-9-9-9-9-9-9-9-9-9-9-9-9-|
A|---8--8--8--8--8--8--8--8--8--8--8--8--8--8--8--8----7-7-7-7-7-7-7-7-7-7-7-7-7-7-7-7-|
E|-------------------------------------------------------------------------------------|
                                                                                         
    X4
E|-------------------------------------------------------------------------------------|
B|-------------------------------------------------------------------------------------|
G|---7-7-7-7-7-7-7-7-7-7-7-7-7-7-7-----------------------------------------------------|
D|---7-7-7-7-7-7-7-7-7-7-7-7-7-7-7---8-8-8-8-8-8-8-8-8-8-8-8-8-8-8-8-------------------|
A|---5-5-5-5-5-5-5-5-5-5-5-5-5-5-5---8-8-8-8-8-8-8-8-8-8-8-8-8-8-8-8-------------------|
E|-----------------------------------6-6-6-6-6-6-6-6-6-6-6-6-6-6-6-6-------------------|


Outro (Heavy Distortion/|Fuzz)


E|-----------------------------------------------------|
B|-----------------------------------------------------|
G|-----------------------------------------------------|
D|-----------------------------------------------------|
A|--555555-888--------88-------------------------------|
E|------------555555-----66666666--333-----------------|

Everything apart from the bridge sounds 99% to me but if you have any comments or 
let me know.