Archive, a >> aya hirano

god knows ver3 tab

 
			     GOD KNOWS – Aya Hirano




Tabbed by: Matt Tomaskovic (Tomaskovic93)
Email:Mattnbrstl@aol.com

Tuning:EADGBe

Intro:
e|-------------------------------------------------------------------------|
B|-------------------------------------------------------------------------|
G|---2-2-2-2-2-2-2-2--4-4-4-4-4-4-4-4--------------------6-6-6-6-6-6-6-6---|
D|---2-2-2-2-2-2-2-2--4-4-4-4-4-4-4-4--6-6-6-6-6-6-6-6---6-6-6-6-6-6-6-6---|
A|---0-0-0-0-0-0-0-0--2-2-2-2-2-2-2-2--6-6-6-6-6-6-6-6---4-4-4-4-4-4-4-4---|
E|-------------------------------------4-4-4-4-4-4-4-4---------------------|

e|-------------------------------------------------------------------------|
B|-------------------------------------------------------------------------|
G|---2-2-2-2-2-2-2-2--4-4-4-4-4-4-4-4--6-6-6-6-6-6-6-6-6-6-6-6-6-6-6-6-----|
D|---2-2-2-2-2-2-2-2--4-4-4-4-4-4-4-4--6-6-6-6-6-6-6-6-6-6-6-6-6-6-6-6-----|
A|---0-0-0-0-0-0-0-0--2-2-2-2-2-2-2-2--4-4-4-4-4-4-4-4-4-4-4-4-4-4-4-4-----|
E|-------------------------------------------------------------------------|

e|-------------------------------------------------------------------------|
B|-------------------------------------------------------------------------|
G|---2-2-2-2-2-2-2-2--4-4-4-4-4-4-4-4--------------------6-6-6-6-6-6-6-6---|
D|---2-2-2-2-2-2-2-2--4-4-4-4-4-4-4-4--6-6-6-6-6-6-6-6---6-6-6-6-6-6-6-6---|
A|---0-0-0-0-0-0-0-0--2-2-2-2-2-2-2-2--6-6-6-6-6-6-6-6---4-4-4-4-4-4-4-4---|
E|-------------------------------------4-4-4-4-4-4-4-4---------------------|

e|-------------------------------------------------------------------------|
B|-------------------------------------------------------------------------|
G|---2-2-2-2-2-2-2-2--4-4-4-4-4-4-4-4--6-6-6-6-6-6-6-6-6-6-6-6-6-6-6-6-----|
D|---2-2-2-2-2-2-2-2--4-4-4-4-4-4-4-4--6-6-6-6-6-6-6-6-6-6-6-6-6-6-6-6-----|
A|---0-0-0-0-0-0-0-0--2-2-2-2-2-2-2-2--4-4-4-4-4-4-4-4-4-4-4-4-4-4-4-4-----|
E|-------------------------------------------------------------------------|

Verse 1:
e|-------------------------------------------------------------------------|
B|-------------------------------------------------------------------------|
G|---6--------4--4--------2----4----1--------------------------------------|
D|---6--------4----4------2----4----2--------------------------------------|
A|---4--------2------2----0----2----2--------------------------------------|
E|----------------------------------0--------------------------------------|

e|-------------------------------------------------------------------------|
B|-------------------------------------------------------------------------|
G|---6-6-6-6-6-6-6-6-6-6-6-6-6-6-6-6--4-4-4-4-4-4-4-4-4-4-4-4-4-4-4-4------|
D|---6-6-6-6-6-6-6-6-6-6-6-6-6-6-6-6--4-4-4-4-4-4-4-4-4-4-4-4-4-4-4-4------|
A|---4-4-4-4-4-4-4-4-4-4-4-4-4-4-4-4--2-2-2-2-2-2-2-2-2-2-2-2-2-2-2-2------|
E|-------------------------------------------------------------------------|
     * * * * * * * * * * * * * * * *  * * * * * * * * * * * * * * * *

e|-------------------------------------------------------------------------|
B|-------------------------------------------------------------------------|
G|---2-2-2-2-2-2-2-2--4-4-4-4-4-4-4-4--------------------------------------|
D|---2-2-2-2-2-2-2-2--4-4-4-4-4-4-4-4--2-2-2-2-2-2-2-2-2-2-2-2-2-2-2-2-----|
A|---0-0-0-0-0-0-0-0--2-2-2-2-2-2-2-2—-2-2-2-2-2-2-2-2-2-2-2-2-2-2-2-2-----|
E|-------------------------------------0-0-0-0-0-0-0-0-0-0-0-0-0-0-0-0-----|
     * * * * * * * *  * * * * * * * *  * * * * * * * * * * * * * * * *
e|-------------------------------------------------------------------------|
B|-------------------------------------------------------------------------|
G|---2-2-2-2-2-2-2-2-2-2-2-2-2-2-2-2---------------------------------------|
D|---2-2-2-2-2-2-2-2-2-2-2-2-2-2-2-2--4-4-4-4-4-4-4-4-4-4-4-4-4-4-4-4------|
A|---0-0-0-0-0-0-0-0-0-0-0-0-0-0-0-0--4-4-4-4-4-4-4-4-4-4-4-4-4-4-4-4------|
E|------------------------------------6-6-6-6-6-6-6-6-6-6-6-6-6-6-6-6------|
     * * * * * * * * * * * * * * * *  * * * * * * * * * * * * * * * *

e|-------------------------------------------------------------------------|
B|-------------------------------------------------------------------------|
G|-------------------------------------------------------------------------|
D|---4-4-4-4-4-4-4-4--2-2-2-2-2-2-2-2--6-6-6-6-6-6-6-6-6-------------------|
A|---4-4-4-4-4-4-4-4--0-0-0-0-0-0-0-0--6-6-6-6-6-6-6-6-6-------------------|
E|---2-2-2-2-2-2-2-2-------------------4-4-4-4-4-4-4-4-4-------------------|
     * * * * * * * *  * * * * * * * *  * * * *  		

Chorus 1:
e|-------------------------------------------------------------------------|
B|-------------------------------------------------------------------------|
G|---2--2-2-2-2-2-2-4--4-4-4-4-4-4------------------6--6-6-6-6-6-6---------|
D|---2--2-2-2-2-2-2-4--4-4-4-4-4-4--6--6-6-6-6-6-6--6--6-6-6-6-6-6---------|
A|---0--0-0-0-0-0-0-2--2-2-2-2-2-2--6--6-6-6-6-6-6--4--4-4-4-4-4-4---------|
E|----------------------------------4--4-4-4-4-4-4-------------------------|

e|-------------------------------------------------------------------------|
B|-------------------------------------------------------------------------|
G|-----------------------------------6-6-6-6-6-6-4--4-4-4-4-4-4------------|
D|--4--4-4-4-4-4-4-6--6-6-6-6-6-6-4--6-6-6-6-6-6-4--4-4-4-4-4-4------------|
A|--4--4-4-4-4-4-4-6--6-6-6-6-6-6-4--4-4-4-4-4-4-2--2-2-2-2-2-2------------|
E|--2--2-2-2-2-2-2-4--4-4-4-4-4-4-6----------------------------------------|

e|-------------------------------------------------------------------------|
B|-------------------------------------------------------------------------|
G|---2--2-2-2-2-2-2-4--4-4-4-4-4-4-----------------------------------------|
D|---2--2-2-2-2-2-2-4--4-4-4-4-4-4----------------6--6-6-6-6-6-6-----------|
A|---0--0-0-0-0-0-0-2--2-2-2-2-2-2-6--6-6-6-6-6-6-4--4-4-4-4-4-4-----------|
E|---------------------------------4--4-4-4-4-4-4--------------------------|

e|-------------------------------------------------------------------------|
B|-------------------------------------------------------------------------|
G|---------------------------------2--2-2-2-2-2-2-4--4-4-4-4-4-4-----------|
D|---4--4-4-4-4-4-4-6--6-6-6-6-6-6-2--2-2-2-2-2-2-4--4-4-4-4-4-4-----------|
A|---4--4-4-4-4-4-4-6--6-6-6-6-6-6-0--0-0-0-0-0-0-2--2-2-2-2-2-2-----------|
E|---2--2-2-2-2-2-2-4--4-4-4-4-4-4-----------------------------------------|

e|-------------------------------------------------------------------------|
B|-------------------------------------------------------------------------|
G|---6-6-6-6-6-6-6-6-6-6-6-6-6-6-6-6---------------------------------------|
D|---6-6-6-6-6-6-6-6-6-6-6-6-6-6-6-6---------------------------------------|
A|---4-4-4-4-4-4-4-4-4-4-4-4-4-4-4-4---------------------------------------|
E|-------------------------------------------------------------------------|

Repeat Intro:
e|-------------------------------------------------------------------------|
B|-------------------------------------------------------------------------|
G|---2-2-2-2-2-2-2-2--4-4-4-4-4-4-4-4--------------------6-6-6-6-6-6-6-6---|
D|---2-2-2-2-2-2-2-2--4-4-4-4-4-4-4-4--6-6-6-6-6-6-6-6---6-6-6-6-6-6-6-6---|
A|---0-0-0-0-0-0-0-0--2-2-2-2-2-2-2-2--6-6-6-6-6-6-6-6---4-4-4-4-4-4-4-4---|
E|-------------------------------------4-4-4-4-4-4-4-4---------------------|

e|-------------------------------------------------------------------------|
B|-------------------------------------------------------------------------|
G|---2-2-2-2-2-2-2-2--4-4-4-4-4-4-4-4--6-6-6-6-6-6-6-6-6-6-6-6-6-6-6-6-----|
D|---2-2-2-2-2-2-2-2--4-4-4-4-4-4-4-4--6-6-6-6-6-6-6-6-6-6-6-6-6-6-6-6-----|
A|---0-0-0-0-0-0-0-0--2-2-2-2-2-2-2-2--4-4-4-4-4-4-4-4-4-4-4-4-4-4-4-4-----|
E|-------------------------------------------------------------------------|

e|-------------------------------------------------------------------------|
B|-------------------------------------------------------------------------|
G|---2-2-2-2-2-2-2-2--4-4-4-4-4-4-4-4--------------------6-6-6-6-6-6-6-6---|
D|---2-2-2-2-2-2-2-2--4-4-4-4-4-4-4-4--6-6-6-6-6-6-6-6---6-6-6-6-6-6-6-6---|
A|---0-0-0-0-0-0-0-0--2-2-2-2-2-2-2-2--6-6-6-6-6-6-6-6---4-4-4-4-4-4-4-4---|
E|-------------------------------------4-4-4-4-4-4-4-4---------------------|

e|-------------------------------------------------------------------------|
B|-------------------------------------------------------------------------|
G|---2-2-2-2-2-2-2-2--4-4-4-4-4-4-4-4--6-6-6-6-6-6-6-6-6-6-6-6-6-6-6-6-----|
D|---2-2-2-2-2-2-2-2--4-4-4-4-4-4-4-4--6-6-6-6-6-6-6-6-6-6-6-6-6-6-6-6-----|
A|---0-0-0-0-0-0-0-0--2-2-2-2-2-2-2-2--4-4-4-4-4-4-4-4-4-4-4-4-4-4-4-4-----|
E|-------------------------------------------------------------------------|

Verse 2:
e|-------------------------------------------------------------------------|
B|-------------------------------------------------------------------------|
G|---6--------4-------2----4----1------------------------------------------|
D|---6--------4-------2----4----2------------------------------------------|
A|---4--------2-------0----2----2------------------------------------------|
E|------------------------------0------------------------------------------|

e|-------------------------------------------------------------------------|
B|-------------------------------------------------------------------------|
G|-------------------------------------------------------------------------|
D|---6-6-6-6-6-6-6-6-6-6-6-6-6-6-6-6--4-4-4-4-4-4-4-4-4-4-4-4-4-4-4-4------|
A|---4-4-4-4-4-4-4-4-4-4-4-4-4-4-4-4--2-2-2-2-2-2-2-2-2-2-2-2-2-2-2-2------|
E|-------------------------------------------------------------------------|
    * * * * * * * * * * * * * * *  * * * * * * * * * * * * * *

e|-------------------------------------------------------------------------|
B|-------------------------------------------------------------------------|
G|---2-2-2-2-2-2-2-2--4-4-4-4-4-4-4-4--------------------------------------|
D|---2-2-2-2-2-2-2-2--4-4-4-4-4-4-4-4--2-2-2-2-2-2-2-2-2-2-2-2-2-2-2-2-----|
A|---0-0-0-0-0-0-0-0--2-2-2-2-2-2-2-2--2-2-2-2-2-2-2-2-2-2-2-2-2-2-2-2-----|
E|-------------------------------------0-0-0-0-0-0-0-0-0-0-0-0-0-0-0-0-----|
    * * * * * * * * * * * * * * *  * * * * * * * * * * * * * * *
e|-------------------------------------------------------------------------|
B|-------------------------------------------------------------------------|
G|---6-6-6-6-6-6-6-6-6-6-6-6-6-6-6-6--4-4-4-4-4-4-4-4-4-4-4-4-4-4-4-4------|
D|---6-6-6-6-6-6-6-6-6-6-6-6-6-6-6-6--4-4-4-4-4-4-4-4-4-4-4-4-4-4-4-4------|
A|---4-4-4-4-4-4-4-4-4-4-4-4-4-4-4-4--2-2-2-2-2-2-2-2-2-2-2-2-2-2-2-2------|
E|-------------------------------------------------------------------------|
    * * * * * * * * * * * * * * * * * * * * * * * * * * * * * * 
e|-------------------------------------------------------------------------|
B|-------------------------------------------------------------------------|
G|--------------------2-2-2-2-2-2-2-2--------------------------------------|
D|---4-4-4-4-4-4-4-4--2-2-2-2-2-2-2-2--6-6-6-6-6-6-6-6-6-------------------|
A|---4-4-4-4-4-4-4-4--0-0-0-0-0-0-0-0--6-6-6-6-6-6-6-6-6-------------------|
E|---2-2-2-2-2-2-2-2-------------------4-4-4-4-4-4-4-4-4-------------------|
     * * * * * * * *  * * * * * * * *  * * * *

Chorus 2:
e|-------------------------------------------------------------------------|
B|-------------------------------------------------------------------------|
G|---2--2-2-2-2-2-2-4--4-4-4-4-4-4------------------6--6-6-6-6-6-6---------|
D|---2--2-2-2-2-2-2-4--4-4-4-4-4-4--6--6-6-6-6-6-6--6--6-6-6-6-6-6---------|
A|---0--0-0-0-0-0-0-2--2-2-2-2-2-2--6--6-6-6-6-6-6--4--4-4-4-4-4-4---------|
E|----------------------------------4--4-4-4-4-4-4-------------------------|

e|-------------------------------------------------------------------------|
B|-------------------------------------------------------------------------|
G|-----------------------------------6-6-6-6-6-6-4--4-4-4-4-4-4------------|
D|--4--4-4-4-4-4-4-6--6-6-6-6-6-6-4--6-6-6-6-6-6-4--4-4-4-4-4-4------------|
A|--4--4-4-4-4-4-4-6--6-6-6-6-6-6-4--4-4-4-4-4-4-2--2-2-2-2-2-2------------|
E|--2--2-2-2-2-2-2-4--4-4-4-4-4-4-6----------------------------------------|

e|-------------------------------------------------------------------------|
B|-------------------------------------------------------------------------|
G|---2--2-2-2-2-2-2-4--4-4-4-4-4-4-----------------------------------------|
D|---2--2-2-2-2-2-2-4--4-4-4-4-4-4----------------6--6-6-6-6-6-6-----------|
A|---0--0-0-0-0-0-0-2--2-2-2-2-2-2-6--6-6-6-6-6-6-4--4-4-4-4-4-4-----------|
E|---------------------------------4--4-4-4-4-4-4--------------------------|

e|-------------------------------------------------------------------------|
B|-------------------------------------------------------------------------|
G|---------------------------------2--2-2-2-2-2-2-4--4-4-4-4-4-4-----------|
D|---4--4-4-4-4-4-4-6--6-6-6-6-6-6-2--2-2-2-2-2-2-4--4-4-4-4-4-4-----------|
A|---4--4-4-4-4-4-4-6--6-6-6-6-6-6-0--0-0-0-0-0-0-2--2-2-2-2-2-2-----------|
E|---2--2-2-2-2-2-2-4--4-4-4-4-4-4-----------------------------------------|

e|-------------------------------------------------------------------------|
B|-------------------------------------------------------------------------|
G|---6-6-6-6-6-6-6-6-6-6-6-6-6-6-6-6---------------------------------------|
D|---6-6-6-6-6-6-6-6-6-6-6-6-6-6-6-6---------------------------------------|
A|---4-4-4-4-4-4-4-4-4-4-4-4-4-4-4-4---------------------------------------|
E|-------------------------------------------------------------------------|

Bridge:
e|-------------------------------------------------------------------------|
B|-------------------------------------------------------------------------|
G|---2----------------------------6---2------------------------------------|
D|---2--------6-------4----6------6---2----6----4-4-4-4-4-4-4-4------------|
A|---0--------6-------4----6------4---0----6----4-4-4-4-4-4-4-4------------|
E|------------4-------2----4---------------4----2-2-2-2-2-2-2-2------------|

e|-------------------------------------------------------------------------|
B|-------------------------------------------------------------------------|
G|---2-2-2-2-2-2-2-2-------------------------------------------------------|
D|---2-2-2-2-2-2-2-2--6-6-6-6-6-6-6-6-6-6-6-6-6-6-6-6-6--6--8--------------|
A|---0-0-0-0-0-0-0-0--6-6-6-6-6-6-6-6-6-6-6-6-6-6-6-6-6--6--8--------------|
E|--------------------4-4-4-4-4-4-4-4-4-4-4-4-4-4-4-4-4--4--6--------------|
							            Dakara    Watashi!

Chorus 3:
e|-------------------------------------------------------------------------|
B|-------------------------------------------------------------------------|
G|---4--4-4-4-4-4-4-6--6-6-6-6-6-6-3--3-3-3-3-3-3-8--8-8-8-8-8-8-----------|
D|---4--4-4-4-4-4-4-6--6-6-6-6-6-6-3--3-3-3-3-3-3-8--8-8-8-8-8-8-----------|
A|---2--2-2-2-2-2-2-4--4-4-4-4-4-4-1--1-1-1-1-1-1-6--6-6-6-6-6-6-----------|
E|-------------------------------------------------------------------------|

e|-------------------------------------------------------------------------|
B|-------------------------------------------------------------------------|
G|---------------------------------4--4-4-4-4-4-4-6--6-6-6-6-6-6-----------|
D|---6--6-6-6-6-6-6-8--8-8-8-8-8-8-4--4-4-4-4-4-4-6--6-6-6-6-6-6-----------|
A|---6--6-6-6-6-6-6-8--8-8-8-8-8-8-6--6-6-6-6-6-6-4--4-4-4-4-4-4-----------|
E|---4--4-4-4-4-4-4-6--6-6-6-6-6-6-----------------------------------------|

e|-------------------------------------------------------------------------|
B|-------------------------------------------------------------------------|
G|---4--4-4-4-4-4-4-6--6-6-6-6-6-6-3--3-3-3-3-3-3-8--8-8-8-8-8-8-----------|
D|---4--4-4-4-4-4-4-6--6-6-6-6-6-6-3--3-3-3-3-3-3-8--8-8-8-8-8-8-----------|
A|---2--2-2-2-2-2-2-4--4-4-4-4-4-4-1--1-1-1-1-1-1-6--6-6-6-6-6-6-----------|
E|-------------------------------------------------------------------------|

e|-------------------------------------------------------------------------|
B|-------------------------------------------------------------------------|
G|---------------------------------4--4-4-4-4-4-4-6--6-6-6-6-6-6-----------|
D|---6--6-6-6-6-6-6-8--8-8-8-8-8-8-4--4-4-4-4-4-4-6--6-6-6-6-6-6-----------|
A|---6--6-6-6-6-6-6-8--8-8-8-8-8-8-2--2-2-2-2-2-2-4--4-4-4-4-4-4-----------|
E|---4--4-4-4-4-4-4-6--6-6-6-6-6-6-----------------------------------------|


e|-------------------------------------------------------------------------|
B|-------------------------------------------------------------------------|
G|---8-8-8-8-8-8-8-8-------------------------------------------------------|
D|---8-8-8-8-8-8-8-8-------------------------------------------------------|
A|---6-6-6-6-6-6-6-6-------------------------------------------------------|
E|-------------------------------------------------------------------------|

Outro:
e|-------------------------------------------------------------------------|
B|-------------------------------------------------------------------------|
G|---4-4-4-4-4-4-4-4--6-6-6-6-6-6-6-6--3-3-3-3-3-3-3-3--8-8-8-8-8-8-8-8----|
D|---4-4-4-4-4-4-4-4--6-6-6-6-6-6-6-6--3-3-3-3-3-3-3-3--8-8-8-8-8-8-8-8----|
A|---2-2-2-2-2-2-2-2--4-4-4-4-4-4-4-4--1-1-1-1-1-1-1-1--6-6-6-6-6-6-6-6----|
E|-------------------------------------------------------------------------|

e|-------------------------------------------------------------------------|
B|-------------------------------------------------------------------------|
G|-------------------------------------------------------------------------|
D|---4-4-4-4-4-4-4-4--6-6-6-6-6-6-6-6--8-8-8-8-8-8-8-8-8-8-8-8-8-8-8-8-----|
A|---2-2-2-2-2-2-2-2--4-4-4-4-4-4-4-4--6-6-6-6-6-6-6-6-6-6-6-6-6-6-6-6-----|
E|-------------------------------------------------------------------------|

e|-------------------------------------------------------------------------|
B|-------------------------------------------------------------------------|
G|-------------------------------------------------------------------------|
D|---4-4-4-4-4-4-4-4--6-6-6-6-6-6-6-6--3-3-3-3-3-3-3-3--8-8-8-8-8-8-8-8----|
A|---2-2-2-2-2-2-2-2--4-4-4-4-4-4-4-4--1-1-1-1-1-1-1-1--6-6-6-6-6-6-6-6----|
E|-------------------------------------------------------------------------|

e|-------------------------------------------------------------------------|
B|-------------------------------------------------------------------------|
G|-------------------------------------------------------------------------|
D|---4-4-4-4-4-4-4-4--6-6-6-6-6-6-6-6--8-8-8-8-8-8-8-8-8-8-8-8-8-8-8-8-----|
A|---2-2-2-2-2-2-2-2--4-4-4-4-4-4-4-4--6-6-6-6-6-6-6-6-6-6-6-6-6-6-6-6-----|
E|-------------------------------------------------------------------------|
End on:
e|-------------------------------------------------------------------------|
B|-------------------------------------------------------------------------|
G|---8---------------------------------------------------------------------|
D|---8---------------------------------------------------------------------|
A|---6---------------------------------------------------------------------|
E|-------------------------------------------------------------------------|

************************************
| /   slide up
| \   slide down
| h   hammer-on
| p   pull-off
| ~   vibrato
| +   harmonic
| x   Mute note
| b   Bend
| pb  Pre-bend
| br  Bend release
| pbr Pre-bend release
| brb Bend release bend
************************************