Archive, b >> b t jones

2.50

green onions tab

 E-----------
B-----------
G*----------*
D*----------*
A-----------
E-1--1-1-4-6 repeat this 12'x then

E------------
B------------
G*-----------*
D*-----------*
A-1--1-1-4-6-
E------------repeat this two times

 then back to the first way repeat that twice

E---------------------------------
B---------------------------------
G---------------------------------
D---------------------------------
A-3--3-3-6-8-1--1-1-4-6-----------
E-----------------------1--1-1-4-6
and u pretty much keep repeating this all over untell the ending which is 

(by the way this is the last three measures)

E---------------6----------------
B---------------8---6-4----------
G---------------6-------3--------
D---------------8---------6-3----
A-------3-3--6--6-------------3-3
E-1-1---1-1--4----------------1-1


im only 14 so if u want the full virson because i play in a jazz band i can get it for u
only the gutar part with out the solo though but anywayz e-mail my at darin90@comcast.net
for comlpaints complimenst ect.... 
green onions tab
Rated: 2.50Reviews: 744

Related Files