Archive, b >> beatles

let it be ver2 btab

 Let it be, Beatles


Tabbed By : Brendoga
e-mail: kingcoconut11@hotmail.com


INTRO (Verse)x2 I listened to this song for ages now i have finnaly figured it out!
G|-----------------------------------------------------------------------------|
D|-----------------------------------------------------------------------------|
A|---3--3--------------------------3--3---------8--7-5-3-----------------------|
E|----------3--3--5--5-3-1--1------------3--3----------------------------------|
Chorus x1
G|---------------------------------------------------------------------------------|
D|---------------------------------------------------------------------------------|
A|---3--3-----------1--1--3--3-----3--3------------8--7-5-3------------------------|
E|----------3--3-------------------------3--3--------------------------------------|
VERSE x2
Chorus x2
BRIDGE x2
G|---------------------------------------------------------------------------|
D|---------------------------------------------------------------------------|
A|----8--7-5-3--1----------3-------------------------------------------------|
E|-----------------5-3-1-----------------------------------------------------|
Solo (verse x2)
Chorus
Verse x2
Chorus x2
Bridge 

Related Files