Archive, b >> bill withers

lovely day ver2 btab 927841id 05032010date

 Bill Withers - Lovely Day (Intro/Verse Only)

Played in two different ways - whichever fits your style

Standard Tuning

G|--------------------------------------------|
D|--------------------------------------------|
A|-77-7-67-676--------------------------------|
D|------------99-9-79-957-55-545-578-7-8877---|

G|--------------------------------------------|
D|-22-2-12-121--------------------------------|
A|----------- 44-4-24-042-00-0-0-023-2-3322---|
D|----------------------------4---------------|
 

Related Files