Archive, b >> blindside

2.70

roads ver3 tab

 Blindside
Roads

e-----------------|
B-----------------|
G-----------------|
D-----------------|
A--5h7------------|
E-------0--3--5---|
  (x3)

e---------------|
B---------------|
G---------------|
D---------------|
A--5h7----------|
E------0--5--3--|


chorus
e-----------------|
B-----------------|
G-----------------|
D-----------------|
A--7--5--3--5-----|
E--------------1--|
   (x8 each)


bridge
e--------------------------------------------|
B--------------------5-----------------------|
G------9-----------6-------------------------|
D----9------7----6------------------------3--|
A--7------5----4----------5----4---2----3----|
E-----------------------3----2---0----1------|

~T41ZS~ 
roads ver3 tab
Rated: 2.70Reviews: 135