Archive, b >> bloc party

talons tab

 -------------------------------------------------------------------------------
                             Talons - Bloc Party
-------------------------------------------------------------------------------
Tabbed by:willis tabs + patch17
Email:maxwillis@yahoo.co.uk

Tuning:EADGBE
Intro/chorus Guitar 1
e|-------------------------------------------------------------------|
B|-------------------------------------------------------------------|
G|-----------------5-5-5-5-2-2-2-2-3-3-3-3-3-3-3-3-5-5-5-5-2-2-2-2---|
D|-0-0-0-0-0-0-0-0---------------------------------------------------|
A|-------------------------------------------------------------------|
E|-------------------------------------------------------------------|x2
Verse, Strum softly.
e|-------------------------------------------------------------------|
B|-------------------------------------------------------------------|
G|10-10--------------------------------------------------------------|
D|10-10--8---6-------------------------------------------------------|
A|-8--8--8---6-------------------------------------------------------|
E|-------10--8-------------------------------------------------------|
Pre Chorus
e|-----------------------------------------------------------------------|
B|-----------------------------------------------------------------------
G|-----------------------------------------------------------------------
D|---10-7-----10-8-7-8-7---------8-7-------------------------------------
A|--------8--------------8-5-3-5-----------------------------------------
E|-10-------10-----------------------------------------------------------
The Bridge
e|-------------------------------------------------------------------------|
B|-------------------------------------------------------------------------|
G|-------------------------------------------------------------------------|
D|--(tremolo picking and effects).------------------------------------------|
A|-7 / \---------------------------------------------------------------------|
E|--------------------------------------------------------------------------

e|--------------------------------------------------------------------------
B|--------------------------------------------------------------------------
G|-------------------------------------------------------------------------|
D|----10-7------7---10-7-8-7-----------------------------------------------|
A|-----------10--------------8-7-------------------------------------------|
E|-10------8------10-------------------------------------------------------|

Play this on the last two times through the final chorus, where > occurs, play the note 8 times
e|-10>>-13>-15>------------------------------------------------------------|
B|--------------------------------------------------------------------------|
G|--------------------------------------------------------------------------|
D|--------------------------------------------------------------------------|
A|--------------------------------------------------------------------------|
E|--------------------------------------------------------------------------|
Guitar 2
Intro/Chorus
e|--------------------------------------------------------------------------|
B|--------------------------------------------------------------------------|
G|--------------------------------------------5-3-2-0-----------------------|
D|-0-2-3-5-3-2-0--0-2-0-0-2-----0-2-3-5-3-2-0---------3~---/15-17-----------|
A|--------------3----------3------------------------------------------------|
E|--------------------------------------------------------------------------|
Pre Chorus
e|-----------------------------------------------------------------------|
B|-----------------------------------------------------------------------|
G|-7-7-----7-7-----------------------------------------------------------|
D|-7-7-8-5-7-7-8--10-----------------------------------------------------|
A|-5-5-8-5-5-5-8--10------------------------------------------------------
E|-----6-3-----6--8-------------------------------------------------------
The Bridge
e|--------------------------------------------------------------------------|
B|--------------------------------------------------------------------------|
G|(Before Slide, rapidly pulling off and hammering on until the slide starts)|
D|---3p2h3p2----------------------------------------------------------------|
A|--------------------------------------------------------------------------|
E|--------------------------------------------------------------------------|

e|--------------------------------------------------------------------------|
B|--------------------------------------------------------------------------|
G|--------------------------------------------------------------------------|
D|--------------------------------------------------------------------------|
A|-8-8-8-8-8-8-8-8-3-3-3-3-3-3-3-3-2-2-2-2-2-2-2-2-3-3-3-3-3-3-3-3----------|
E|-6-6-6-6-6-6-6-6-1-1-1-1-1-1-1-1-0-0-0-0-0-0-0-0-1-1-1-1-1-1-1-1----------|


| /  slide up
| \  slide down
| h  hammer-on
| p  pull-off
| ~  vibrato
| +  harmonic
| x  Mute note
===============================================================================