Archive, b >> blood red shoes

you bring me down ver3 tab

 Tabbed by John McLaren of the Satsumas 
A tribute to the legend that is \\" MAVIS\\" 
Contact me at: jf_mclaren@hotmail.com

verse

e|-------------------------------------------------------------------------|
B|----12-12----------------------------------------------------------------|
G|----xx-xx-12-12----------------------------------------------------------|
D|----10-10-10-10-12-12----------------------------------------------------|
A|----10-10-10-10-10-10----------------------------------------------------|
E|-------------------------------------------------------------------------|


Pre Chorus
e|-------------------------------------------------------------------------|
B|-------------------------------------------------------------------------|
G|-------------------------------------------------------------------------|
D|----------10----------12-10-----------10----------12---------------------|
A|----12-12----12-12-12-----------12-12----12-12-12----5x16----------------|
E|-------------------------------------------------------------------------|
x2

verse

e|-------------------------------------------------------------------------|
B|----12-12----------------------------------------------------------------|
G|----xx-xx-12-12----------------------------------------------------------|
D|----10-10-10-10-12-12----------------------------------------------------|
A|----10-10-10-10-10-10----------------------------------------------------|
E|-------------------------------------------------------------------------|


Pre Chorus
e|-------------------------------------------------------------------------|
B|-------------------------------------------------------------------------|
G|-------------------------------------------------------------------------|
D|----------10----------12-10-----------10----------12---------------------|
A|----12-12----12-12-12-----------12-12----12-12-12----5x16----------------|
E|-------------------------------------------------------------------------|
x2

Chorus
e|----0--------------------------------------------------------------------|
B|----5--------------------------------------------------------------------|
G|----5x16--12-12-14-14-12-12-14-14-12-12-14-14-12-12-14-14----------------|
D|-------------------------------------------------------------------------|
A|-------------------------------------------------------------------------|
E|-------------------------------------------------------------------------|



Interlude
e|-------------------------------------------------------------------------|
B|-------------------------------------------------------------------------|
G|-------------------------------------------------------------------------|
D|----10-10-10-10-10-10-10-10-12-12-12-12-12-12-12-12----------------------|
A|-------------------------------------------------------------------------|
E|-------------------------------------------------------------------------|

Chorus
e|----0--------------------------------------------------------------------|
B|----5--------------------------------------------------------------------|
G|----5x16--12-12-14-14-12-12-14-14-12-12-14-14-12-12-14-14----------------|
D|-------------------------------------------------------------------------|
A|-------------------------------------------------------------------------|
E|-------------------------------------------------------------------------|


Thats pretty much it, thanks for looking at my Tab, i've never tabbed a song here
before so thought I'd try it out. cheeeers x x
www.myspace.com/thesatsumas
www.bebo.com/thesatsumas