Archive, b >> bowling for soup

a friendly goodbye tab

 This Is A Song Off Of Bowling For Soups New Album I Think I Fucked The Bridge Up But 
Please Rate & Comment :)

Band: Bowling For Soup
Song: A Friendly Goodbye
Album: The Great Burrito Extortion Case
Tabber: Mosy!

Standard Tuning

Low To High (E-A-D-G-B-E-)


Intro
[-------------------------------------------]
[-------------------------------------------]
[-------------------------------------------]
[-2-2-22-----7-7-77-----2-2-22-----7-7-77-9-]
[-0-0-00--2--5-5-55--2--0-0-00--2--5-5-55-7-]
[---------0----------0----------0-----------]

[-------------------------------------------]
[-------------------------------------------]
[-------------------------------------------]
[-2-2-22-----7-7-77-----2-2-22-----7-7-7-9--]
[-0-0-00--2--5-5-55--2--0-0-00--2--5-5-5-7--]
[---------0----------0----------0-----------]

Verse Part 1:
    **************************************************************
[-----------------------------------------------------------------]
[-----------------------------------------------------------------]
[-----------------------------------------------------------------]
[-2-2-2-2-2-2-2-2-4-4-4-4-4-4-4-4-7-7-7-7-7-7-7-7-9-9-9-9-9-9-9-9-]
[-0-0-0-0-0-0-0-0-2-2-2-2-2-2-2-2-5-5-5-5-5-5-5-5-7-7-7-7-7-7-7-7-]
[-----------------------------------------------------------------]

 *****************************************************************
[-----------------------------------------------------------------]
[-----------------------------------------------------------------]
[-----------------------------------------------------------------]
[-2-2-2-2-2-2-2-2-4-4-4-4-4-4-4-4-7-7-7-7-7-7-7-7-9-9-9-9-9-9-9-9-]
[-0-0-0-0-0-0-0-0-2-2-2-2-2-2-2-2-5-5-5-5-5-5-5-5-7-7-7-7-7-7-7-7-]
[-----------------------------------------------------------------]

Verse Part 2:
  ***   ***  ********  ****   *******    ***  *******   ***   ***
[-----------------------------------------------------------------]
[-----------------------------------------------------------------]
[-----------------------------------------------------------------]
[-7-7-7-7-7-7-7-7-9-9-9-9-9-9-9-9-2-2-2-2-2-2-2-2-7-7-7-7-7-7-7-7-]
[-5-5-5-5-5-5-5-5-7-7-7-7-7-7-7-7-0-0-0-0-0-0-0-0-5-5-5-5-5-5-5-5-]
[-----------------------------------------------------------------]

  ***   ***  ********  ****   *******    ***  *******   ***   ***
[-----------------------------------------------------------------]
[-----------------------------------------------------------------]
[-----------------------------------------------------------------]
[-7-7-7-7-7-7-7-7-9-9-9-9-9-9-9-9-2-2-2-2-2-2-2-2-7-7-7-7-7-7-7-7-]
[-5-5-5-5-5-5-5-5-7-7-7-7-7-7-7-7-0-0-0-0-0-0-0-0-5-5-5-5-5-5-5-5-]
[-----------------------------------------------------------------]

[-----][-----][-----][------------]
[-----][-----][-----][------------]
[--9--][--9--][-----][------------]
[--9--][--9--][-----][------------]
[--7--][--7--][-----][------------]
[-----][-----][-----][-Pickscrape-]

Chorus:
[------------------------------------------------------------------]
[------------------------------------------------------------------]
[----------9-9-9-9--7-7-7-7--9-9-9-9-----------9-9-9-9--7-7-7-7-7--]
[-7-7-7-7--9-9-9-9--7-7-7-7--9-9-9-9--7-7-7-7--9-9-9-9--7-7-7-7-7--]
[-7-7-7-7--7-7-7-7--5-5-5-5--7-7-7-7--7-7-7-7--7-7-7-7--5-5-5-5-5--]
[-5-5-5-5-----------------------------5-5-5-5----------------------]

Bridge:
[-------------------------------------------------------------]
[-------------------------------------------------------------]
[-------------------------------------------------------------]
[-4-4-4-4-4-4-4-4-------------------7-7-7-7-7-7-7-x-----------]
[-2-2-2-2-2-2-2-2--2-2-2-2-2-2-2-2--5-5-5-5-5-5-5-0--7--------]
[------------------0-0-0-0-0-0-0-0-------------------5--------]

[-------------------------------------------------------------]
[-------------------------------------------------------------]
[-------------------------------------------------------------]
[-4-4-4-4-4-4-4-4-------------------7-7-7-7-7-7-7-------------]
[-2-2-2-2-2-2-2-2--2-2-2-2-2-2-2-2--5-5-5-5-5-5-5-0--7--------]
[------------------0-0-0-0-0-0-0-0-------------------5--------]

[--------------------------------------------------------------------]
[--------------------------------------------------------------------]
[--------------------------------------------------------------------]
[-4-4-4-4-4-4-4-4--9-9-9-9-9-9-9-9-------------------6-6-6-6-6-6-6-6-]
[-2-2-2-2-2-2-2-2--7-7-7-7-7-7-7-7--7-7-7-7-7-7-7-7--4-4-4-4-4-4-4-4-]
[-----------------------------------5-5-5-5-5-5-5-5------------------]

[-----][-----][-----]
[-----][-----][-----]
[--4--][--7--][--9--]
[--4--][--7--][--9--]
[--2--][--5--][--7--]
[-----][-----][-----]

Outro:
[-------------]
[-------------]
[-------------]
[----2-----7--]
[-2--0--2--5--]
[-0-----0-----]

End:
[---]
[---]
[---]
[-2-]
[-2-]
[-0-]