Archive, b >> boys like girls

thunder ver2 btab 1136373id 08032012date

 Done by XxbassdudexX on youtube check out my video on this tab

Intro

G------------------------------------------------------------|
D------------------------------------------------------------|
A---5-----5-5/7-4-4---0-0-2-4--------------------0-0-0-0---0-|
D-0---0-0----------------------5-5---5---5-5-0-5---------5---|

pre chorus 

G---------------------------------------------------|
D---------------------------------------------------|
A-2-2-2---0-0-0-0-2-4-4-4-----5---------------------|
D-------------------------0-0---0-2-5---5-5-5-0-5-7-|

Chorus

G-------------------------------------------------------------------------|
D-------------------------------------------------------------------------|
A---5-----5-----0-0---0---0-0---------------------2-2-2-2-2---0-0-0-0-0---|  X2
D-0---0-0---0-2---------------0-2-5---5-5-5-5-0-5-------------------------|


G------------------------------------|
D------------------------------------|
A----------------------0---0-0-0---0-|
D-0-2-5---5-5-5-5-0-5-----------5----|

Verse

G------------------------------------------------------------|
D------------------------------------------------------------|
A---5-----5-5/7-4-4---0-0-2-4--------------------0-0-0-0---0-| X2
D-0---0-0----------------------5-5---5---5-5-0-5---------5---|

pre chorus 

G-----------------------------------------------------------------|
D-----------------------------------------------------------------|
A-2-2-2---0-0-0-0-2-4-4-4-----5-----------------------------------|
D-------------------------0-0---0-2-5---5-5-5-0-5-7-7-7---7-7-5-7-|

Chorus

G-------------------------------------------------------------------------|
D-------------------------------------------------------------------------|
A---5-----5-----0-0---0---0-0---------------------2-2-2-2-2---0-0-0-0-0---|  X2
D-0---0-0---0-2---------------0-2-5---5-5-5-5-0-5-------------------------|


G------------------------------------|
D------------------------------------|
A----------------------0---0-0-0---0-|
D-0-2-5---5-5-5-5-0-5-----------5----|

Bridge

G---------------------------------------------------------------------------------|
D---------------------------------------------------------------------------------|
A---------2-2-2-2-0-0-0-0-----------------2-2-2-2-0-0-0-0-0-0---------------------|
D-2-2-2-0-----------------5-5-5/7-0-0-0-0---------------------0-2-5-5-5-5-5-5/7-0-|

Chorus

G-------------------------------------------------------------------------|
D-------------------------------------------------------------------------|
A---5-----5-----0-0---0---0-0---------------------2-2-2-2-2---0-0-0-0-0---|  X2
D-0---0-0---0-2---------------0-2-5---5-5-5-5-0-5-------------------------|

G-------------------------------------------------------------------------|
D-------------------------------------------------------------------------|
A---5-----5-----4-4---4---4-4---------------------2-2-2-2-2---0-0-0-0-0---|
D-0---0-0---0-2---------------0-2-5---5-5-5-5-0-5-------------------------|

G-------------------------------------------------------------------|
D-------------------------------------------------------------------|
A----------------------0---0-0-0---0-----------------------0---0/2--|
D-0-2-5---5-5-5-5-0-5-----------5----0-2-5---5-5-5-5-0-5----------0-| 

Related Files