Archive, b >> buono

3.80

kataomoi crd 1015778id 06012011date

         Buono - Kataomoi (Unrequited Love)
tabbed by manOutOfTime
updated: fixed verse, etc

Played over Verse:
-----------------------------------------------------------|
-----------------------------------------------------------|
-999----888----777----666----111111----101010----9-9-9-----|
-999----999----999----999----111111----111111----111111----|
-----------------------------------------------------------|
-----------------------------------------------------------|

Saisho wa ne Zenzen nantomo omo wa nakatta
                     BBBB
HONTO waracchau hodo
Na no ni mou kizuitara Me de oikaketeiru kara
                   E  B
Nanka chotto kuyashiinda

A                                                E
NeGUSE tsuita kami ni shiwakucha no WAISHATSU no HIIROO
A
Koisuru hitomi ni wa KIRAKIRA mabushi sugite
B
MOOSOO zenkai Tomerarenai

C         D         Bm    Em
Hitori de miageru fuyu no seiza wo
C         D         Bm    Em
Tameiki no ito de musun de
C         D         Bm    Em
Nandomo nandomo namae wo yobu kedo
    C         D
Todokanai KATAOMOI
         Em  G     C   C D
Kurushikute    Itsumo

Em  G  C

Em-Bm

Tomodachi no dare ni mo ittenai kara
Tabun minna BIKKURI suru
Kaerimichi sarigenaku mae wo aruitari toka ne
Kanari namidagumashii desho

A                                               E
Futarikiri ni naru to kitto nani mo hanasenai kuse ni
A                             B
Miteru dake ja TSURAI Dondon yokubari ni naru
BAKUHATSU sunzen Tomerarenai

C         D         Bm    Em
Shuugou shashin no nakisou na kao wa
C         D         Bm    Em
Futari no basho ga toosugite
C         D         Bm    Em
Nandomo nandomo furikaeru kedo
    C         D
Todokanai KATAOMOI
         Em
Itsumademo

SOLO
----14bbbb/15\14-----------------8-|----------------------------|------------|
-12--------------12--/1010-88-10---|-12tr\-/8tr\--2-0-2/22-21v--|------------|
-----------------------------------|----------------------------|------------|
-----------------------------------|----------------------------|------------|
-----------------------------------|----------------------------|------------|
-----------------------------------|----------------------------|------------|
C             D-Em                   C     
Bm     G

A                                                E
NeGUSE tsuita kami ni shiwakucha no WAISHATSU no HIIROO
A
Koisuru hitomi ni wa KIRAKIRA mabushi sugite
B
MOOSOO zenkai Tomerarenai

C         D         Bm    Em
Hitori de miageru fuyu no seiza wo
C         D         Bm    Em
Tameiki no ito de musun de
C         D         Bm    Em
Nandomo nandomo namae wo yobu kedo
    C         D
Todokanai KATAOMOI
         Em  G     C    C   D
Kurushikute    Itsumo

-----------------------------------/15---14-12-------14tr-----------10tr-----|
-----------------------/10-12-10---------------15-12------12vvvvvvv----------|
------------------7-9--------------------------------------------------------|
------------7-9-79-----------------------------------------------------------|
-/9--7-9-10------------------------------------------------------------------|
-----------------------------------------------------------------------------|
 Em             G      C                             
D  C  Em 
kataomoi crd 1015778id 06012011date
Rated: 3.80Reviews: 669

Related Files