Archive, c >> cccp

2.70

allarme btab

 CCCP FEDELI ALLA LINEA - ALLARME
ALBUM: Affinità Divergenze fra il compagno Togliatti e noi. Del conseguimento della 
età (1986)
BASSIST: UMBERTO NEGRI

INTRO

E ----------------2---|
A --------7--4--2-----|
D --7---5-------------|
G --------------------|

VERSE

E ---------------------------------------------------------------------|
A -3-3-----3-3-3-------1--3-3-----3-3-3-------3-3-------------------1--|
D -----1-0-------1-1-0--------1-0-------1-1-0-----6-5--3-3-3--1-1-0----|
G ---------------------------------------------------------------------|

E ------------------------|
A -3-3-----3-3-3-------1--|
D -----1-0-------1-1-0----|
G ------------------------|


BRIDGE

E -------------------------------|
A --/3---------3-----------------|
D -----1--5--1---0--/3--6--3--0--|
G -------------------------------|

CHORUS

E -4-4--4-4--3-3--3-3--2-2--2-2--2-2--2-2------------------------------------|
A ---------------------------------------/3-3-3-3-3--1-1-1-1-1--0-0-0-0-0-00-|
D ---------------------------------------------------------------------------|
G ---------------------------------------------------------------------------|

E ---------------------------------------------------------------------------|
A -/5-5-5-5-5-4-4-4-4-4-2-2-2-2-2-2-2-2-2-2-2-/77777-66666-55555555555-------|
D ---------------------------------------------------------------------------|
G ---------------------------------------------------------------------------|

BACK TO THE VERSE

Allarme lampo
allarme agitazione
commovimento d'animo
spirito di partito
movomento parziale
amor di parte
stimolante paralisi
amor di parte
stimolante paralisi
di un giorno di una sera
di una notte di un'idea
ma l'alibi non regge
e l'evidenza sfugge
solo tu solo tu
allarme lampo allarme
torci le labbra a curva
in gesto di amarezza indifferente
più reale del vero, che
spesso sembra stupido
usa il cervello e i nervi
con disinvoltura e mira al cuore mira al cuore
MIRA AL CUORE
se l'alibi non regge e l'evidenza sfugge
muore tutto
l'unica cosa che vive sei tu
vivi solo tu solo tu SOLO TU
muore tutto vivi solo tu

JAH WOBBLE IS GOD! 
allarme btab
Rated: 2.70Reviews: 377

Related Files