Archive, c >> cky

escape from hellview ver2 btab

 The song is played a whole step down, the other tab was totally wrong and was almost the 
as the guitar part, so I tabbed it myself.

~ = Let Ring


CHORUS
F------------------------------------------------------------------------|
C--------------------------------------------------------------------9---|
G-------2--------2-3-------------------5--5-5--5-5--5-5--5--5--5--6----7-|
D---0-0---0--0-0-----0-0--3-2-5-3-0-3------------------------------------|


VERSE
F------------------------------------------------------------------------|
C------------------------------------------------------------------------|
G------------3--2-------------3--2-----------5--4------------3--2--------|
D--0~---------------0~---------------0~---------------0~-----------------|


PRE - CHORUS
F---------------------------------------------------------------------------|
C----------------------------\5-4-------------------------------------------|
G---------------------------------5--3--3-3--3-3--3-3--3-2--2-2--2-5--5-5--5|
D-0--0-0--0-0--0-0--0-0--0-0------------------------------------------------|

When you repeat the pre chorus make it a short 2 on the G, and only play it once, do the 
for the 5 on the G, but make sure it's fpr the same amount of beats.


BRIDGE
F-------------------------------|
C-------------------------------|
G-------------------------------|
D--1-1--1-1--1-1-4-3-6-4-0~-----|


You'll have to repeat the riffs according to the song, I'm just too lazy to put the 
of times to repeat for each. Enjoy! 

Related Files