Archive, c >> cradle of filth

3.40

coffin fodder btab

 -------------------------------------------------------------------------------
			     Coffin Fodder - Cradle of Filth
-------------------------------------------------------------------------------

Tabbed By : Necrotic
e-mail: joelschwallier@gmail.com

Tuning: Drop C (its actually possible to play the song in standard, but I'm pretty sure 
use Drop C.)

Intro (wait a few beats then come in)
F|-------------------------------|
C|-------------------------------|
G|-------------------------------|
C|--1/10---9-6---3h5p3h5h6-8/1---|
                |_____________|-quiet fills
Pre-Verse
F|----------------------------------|
C|----------------------------------|
G|3--3--3-6-3---5-6----5-----8-10---|
C|------------------------8---------|

F|----------------------------------|
C|----------------------------------|
G|3-------6-3---5-6----5-----8-10---|
C|------------------------8---------|

Verse
F|----------------------------------------------------------------|
C|----------------------------------------------------------------|
G|33333333333333333333333366665555------------------------668-668-|
C|--------------------------------666666666666666688888888--------|x2

Verse Variation (after verse 1)
F|------------------------------------------------------------------|
C|------------------------------------------------------------------|
G|3-333-33-556-556-3-333-33-5-6-5-3-------------------------668-668-|
C|----------------------------------6-666-666-666-668-888-88--------|x2

Pre-Chorus
F|----------------------------------|
C|----------------------------------|
G|3-------6-3---5-6----5-----8-10---|
C|------------------------8---------|x2

Chorus
F|---------------------------------------------------|
C|---------------------------------------------------|
G|8-75---87----------------8-75---87-5-5-5-7-7-7-4-4-|
C|----8----7--7-7-7-777777-----8---------------------|x4

Verse
F|----------------------------------------------------------------|
C|----------------------------------------------------------------|
G|33333333333333333333333366665555------------------------668-668-|
C|--------------------------------666666666666666688888888--------|x2

Verse Variation (after verse 1)
F|------------------------------------------------------------------|
C|------------------------------------------------------------------|
G|3-333-33-556-556-3-333-33-5-6-5-3-------------------------668-668-|
C|----------------------------------6-666-666-666-668-888-88--------|x2

Pre-Chorus
F|----------------------------------|
C|----------------------------------|
G|3-------6-3---5-6----5-----8-10---|
C|------------------------8---------|x2

Chorus
F|---------------------------------------------------|
C|---------------------------------------------------|
G|8-75---87----------------8-75---87-5-5-5-7-7-7-4-4-|
C|----8----7--7-7-7-777777-----8---------------------|x4

Bridge 1
F|-----------------------------------------------|
C|-----------------------------------------------|
G|-----------------------------------------------|
C|5-555-555-556---5-8-6-666-666-66-5--6-5--5-5h8-|x2

Bridge 2
F|--------------------------------|
C|--------------------------------|
G|--------------------------------|
C|5----5-6---5-8-6--------5-6-5-8-|x4

Bridge 1
F|-----------------------------------------------|
C|-----------------------------------------------|
G|-----------------------------------------------|
C|5-555-555-556---5-8-6-666-666-66-5--6-5--5-5h8-|x2

Chorus
F|---------------------------------------------------|
C|---------------------------------------------------|
G|8-75---87----------------8-75---87-5-5-5-7-7-7-4-4-|
C|----8----7--7-7-7-777777-----8---------------------|x2

Verse
F|----------------------------------------------------------------|
C|----------------------------------------------------------------|
G|33333333333333333333333366665555------------------------668-668-|
C|--------------------------------666666666666666688888888--------|x2

Verse Variation (after verse 1)
F|------------------------------------------------------------------|
C|------------------------------------------------------------------|
G|3-333-33-556-556-3-333-33-5-6-5-3-------------------------668-668-|
C|----------------------------------6-666-666-666-668-888-88--------|x2

Pre-Outro
F|----------------------------------|
C|----------------------------------|
G|3-------6-3---5-6----5-----8-10---|
C|------------------------8---------|x2

Outro
F|-----------------------|
C|-----------------------|
G|6-5---568-6---563--3/1-|
C|----8-------8----------|

| /  slide up
| \  slide down
| h  hammer-on
| p  pull-off
| ~  vibrato
| +  harmonic
| x  Mute note
=============================================================================== 
coffin fodder btab
Rated: 3.40Reviews: 42

Related Files