Archive, d >> death

evil dead ver2 btab

 Death - Evil Dead
Bass Tab
Tuning - D G C F (one whole step down)


intro
F|-------------------------|    	F|----|
C|-------------------------|    	C|----|
G|-------------------------|    	G|----|
D|-5~-----3~-----1~-----0~-| x2 	D|-5~-| play this note and let it ring after second 
playing intro

riff A
F|-------|
C|-------|
G|-7/8-0-|
D|-------|

riff B
F|---------------------|
C|-------7---8---7-----|
G|-000000-000-000--7/8-|
D|---------------------|

riff C
F|--------------------------------------|
C|---------5-----------------5----------|
G|-5~-7~-8~--8--7~---5~-7~-8~--8-7-5----|
D|----------------------------------8-7-|


the whole song is made up of these main riffs so you should be able to figure it out the 
pretty easily

outro
F|----------------------|
C|-------7---8---7------|
G|-000000-000-000--7/8-0|
D|----------------------| 

Related Files