Archive, d >> diamond head

am i evil btab

 Am I Evil? - Diamond Head
Standard Tuning (E,A,D,G)
================================================================

Rest: (0:00)

Intro Part 1: (0:08)

G:----------------------------------------------|
D:----------------------------------------------|
A:------------------9-7~------------9-7~--------|
E:----0~----7-6~------------7-6~-----------0----|

G:----------------------------------------------|
D:----------------------------------------------|
A:------------------------------------555555----|
E:----7-6~----2-0~----7-6~----2-0~--------------|

Intro Part 2: (0:47)

G:------------------------------|
D:------------------------------|    x4
A:----7-7777-7777-7775555557----|
E:------------------------------|

Intro Part 3: (0:59)

G:---------------10-9-10-10h12------|
D:--------------9-8-----------------|
A:----------8-7---------------------|
E:----0-7-6-------------------------|

Rest: (1:11)

Verse Opening: (1:27)  [Listen to it to get the feel of it]

G:--------------------9-7-9--9-12-9-7-7-------|
D:-----------------------9-----------9--------|
A:-------------------------------------9-7----|
E:----0-------12\0~---------------------------|

Verse: (1:36)

G:----------------------|
D:----------------------|    x12
A:----------------------|
E:----000030050006-5----|

Pre-chorus: (2:12)

G:----------------------|
D:----------------------|    x4
A:--------5--7---8-7----|
E:----7777-77-777-------|

Chorus: (2:24) [Same as the verse]

Verse: (2:36)

Pre-chorus: (3:06)

Chorus: (3:19)

Bridge Intro: (3:31)

G:-------------+
D:-------------+ Play 5 times
A:----7--5--3--+ each time play corresponding part
E:------0--0---+

Part 1:

G:----5------------------------|
D:-----------------------------|
A:-----------------------------|
E:-----------000030050006-5----|

Part 2 and 3:

G:----5--3------------|
D:---------5-3--------|
A:-------------5-3----|
E:--------------------|

Part 4 [Play the italics quickly]:

G:----55555557777755555------777777----|
D:---------------------777777----------|
A:-------------------------------------|
E:-------------------------------------|


Part 5:

G:----5555555555555555----|
D:------------------------|
A:------------------------|
E:------------------------|

Bridge pre-verse: (3:50)

G:----------------------------------------------|
D:----------------------------------------------|    x2
A:---------------------5-----------------3------|
E:----5-5555-5555-5553----5-5555-5555-555--3----|

Bridge pre-verse (at end of second round through each):

G:--------------------|
D:----577777577777----|
A:--------------------|
E:--------------------|

Bridge verse: (4:01)

G:---------------------------------------------------|
D:---------------------------------------------------|    x4
A:-----------------------5--------------------5-5----|
E:----0-0000-0000-0000-0------0-0000-0000-0000-------|

Bridge chorus: (4:21) [Same as bridge pre-verse]

Bridge verse: (4:31)

Bridge chorus: (4:50)

Solo lead-in: (5:01)

G:------------------            G:-------------------|
D:------------------    x4      D:-------------------|
A:-------3-3--------            A:-------------------|
E:----0------5\0----            E:----0-------3-5----|

Solo Part 1: (5:14)

G:----------------------------|
D:----------------------------|    x6
A:----2-2222-2222-2222-222----|
E:----------------------------|

Solo part 2: (5:29)

G:----------------------------|
D:----2-2222-2222-2222-222----|    x2
A:----------------------------|
E:----------------------------|

Solo part 1: (5:34)

Solo part 3: (5:47)

G:------------------------------------------------|
D:------------------------------------------------|
A:----0-0000-0000-0000-000------------------------|
E:------------------------1-1111-1111-1111-111----|

G:------------------------------------------------|
D:------------------------------------------------|
A:----1-1111-1111-1111-111------------------------|
E:------------------------2-2222-2222-2222-222----|

Solo part 1: (5:56)

Solo part 2: (6:09)

Solo part 1: (6:15)

Bridge pre-verse: (6:19)

Bridge verse: (6:29)

Bridge chorus: (6:48)

Post-bridge riff: (7:08)

G:---------------------------------|
D:---------------------------------|    x4
A:-------7--55--55--------7p5p0----|
E:----0-0--0---0----0h5h7----------|

Verse opening: (7:18)

Verse: (7:24)
================================================================
This is one of the more complicated tabs I’ve written, don’t expect it to be perfect, 
out during the bridge to make sure you’re playing the right part, and as always, enjoy the 
and keep thrashing. 

Related Files