Archive, d >> dirty pretty things

truth begins btab

 Just so you know, there are no frets in this song tah tare higher than fret 10, if you 
something that looks like 11 or 13, it is a 1 or a 3 next to a 1.

Chorus
G|-----------------------------------------------|
D|-----------------------------------------------|
A|1-----------66531-----------------101010--10-8-|
E|----1---3-----------1---3---3-333--------------|x2

Verse 2
G|--------------------------------|
D|--------------------------------|
A|1-------1------6-------63-------|
E|-------------------------------1|

G|------------------10\------------------------------------------|
D|---------------------------------------------------------------|
A|1--1-1--1-1--1-1---------------6--6-6--6-6--6-6--6-------------|
E|----------------------1-1--------------------------1--1-1--1-1-|

Pre-Chorus
G|-------------------------------------------------------|
D|-------------------------------------------------------|
A|5-55-55-55-4-3-33-33-33-2-1-11-11-11-2-3-333-333--10-8-|
E|-------------------------------------------------------|

Chorus

Bridge
G|-------------------------------------------------|
D|-------------------------------------------------|
A|6666666666666-8888888888888-6-66-66-66-7-8-88-88-|
E|-------------------------------------------------|

G|--------------------------------------------------------------|
D|---------------------------------------------765--------------|
A|666666666666-8888888888888-10-8-7-6-66-66-66-----8-88-88-88-8-|
E|--------------------------------------------------------------|

Let note ring before sliding down
G|--------------------------------|
D|--------------------------------|
A|5\-----5\-----5\------5\-5-5-5-5|
E|--------------------------------|

Verse 3
G|-------------------------------------------|
D|-------------------------------------------|
A|1~-------1~-------6-66-66-66-6-3-33-33----4|
E|---------------------------------------11--|

Pre-Chorus

Last Chorus
G|-3-------------------------------|
D|---3-5-------3-------------------|
A|1-----66531---------101010--10-8-|
E|--1-3-------1-3-333--------------|x2

G|-------------------------------------------|
D|-------------------------------------------|
A|1--1---------66531--1----------101010--10-8|
E|----1--13---3--------1--13-333-------------|x2

Solo
G|----------------------------------------------------|
D|----------------------------------------------------|
A|1------1------10--101081------1------10--101081~----|
E|----------------------------------------------------|

Thats all. Brilliant song off the new album. 

Related Files