Archive, e >> echo and the bunnymen

thorn of crowns ver2 btab

 ECHO & THE BUNNYMEN - THORN OF CROWNS
ALBUM: OCEAN RAIN (1984)
BASSIST: LES PATTINSON

VERSE

E -------------------------------------|
A -------------------------------------|
D ---7-7-7-7--h5----7-7-7-7------------|
G ----------------------------6h7h7----|

VARIATIONS

E -------------------------------------|
A -------------------------------------|
D ---7-7-7-7--h5----7-7-7-7-5----------|
G -----------------------------7-7-----|

E ------------------------------------------|
A ------------------------------------------|
D ---7-7-7-7-7-7-h5-(5)----7-7-7-7-7--------|
G -----------------------------------6h7h7--|

CHORUS

E -----------------|
A --------------7--|
D ----4-7-----4----|
G --6-----4-6------|


JAH WOBBLE IS GOD!!!
JAH WOBBLE IS GOD 

Related Files