Archive, e >> eraserheads

3.50

minsan btab

 Tittle: Minsan
Artist: Eraserheads
Guitar Tabber: Adrian Dionila
	       adriandionila@yahoo.com [YM & Friendster]

Eto pla ung na bass tab ng Minsan..
Masyadong emotional kasi tong song na to..
Tska gusto qng mag tab ng mga bass at chords ng eheads..

VERSE I:

   D                    DM7
Minsan sa may kalayaan tayo nagkatagpuan
Em          		Gm    				D-Dsus
May mga sariling gimik at kanya-kanyang hangad sa buhay

(Biglang pasok ng bass.. TIMING )
e------------------------------------------------------------|
B------------------------------------------------------------|
G------------------------------------------------------------|
D------------------------------------------------------------|
A------------5---55---55-------------------5---55---5---55---|
E-0-2-2--5-5------------------0---2-2--5-5-------------------|


e------------------------------------------------------------|
B------------------------------------------------------------|
G------------------------------------------------------------|
D------------------------------------------------------------|
A------------7---77---7---77---------------------------------|
E-0-2-2--5-5------------------0---2-2--5-5---3---33--3---33--|

e------------------------------------------------------------|
B------------------------------------------------------------|
G------------------------------------------------------------|
D------------------------------------------------------------|
A-5-5h7--5s3--------------5-55-55----------------------------|
E-------------3---33--33-----------3--33--33--33---5--55--55-|

e------------------------------------------------------------|
B------------------------------------------------------------|
G------------------------------------------------------------|
D------------------------------------------------------------|
A------------------------------------------------------------|
E---2--22--22--22--22---3---33---33--33--333-----------------|

e------------------------------------------------------------|
B------------------------------------------------------------|
G------------------------------------------------------------|
D------------------------------------------------------------|
A------------------------------------------------------------|
E---2--22--22--22--22---3---33---33--33--333-----------------|

e------------------------------------------------------------|
B------------------------------------------------------------|
G------------------------------------------------------------|
D------------------------------------------------------------|
A--5-55--55--------------------------------------------------|
E------------5--55--55--55--55s3--33--33--33-33-33-33-3break-|

Adlib:

e------------------------------------------------------------|
B------------------------------------------------------------|
G------------------------------------------------------------|
D------------------------------------------------------------|
A------------5---55---55-------------------5---55---5---55---|
E-0-2-2--5-5------------------0---2-2--5-5-------------------|

e------------------------------------------------------------|
B------------------------------------------------------------|
G------------------------------------------------------------|
D------------------------------------------------------------|
A-5-5h7--5s3--------------5-55-55----------------------------|
E-------------3---33--33-----------3--33--33--33---5--55--55-|

e------------------------------------------------------------|
B------------------------------------------------------------|
G------------------------------------------------------------|
D------------------------------------------------------------|
A------------------------------------------------------------|
E---2--22--22--22--22---3---33---33--33--333-----------------|

e------------------------------------------------------------|
B------------------------------------------------------------|
G------------------------------------------------------------|
D------------------------------------------------------------|
A--5-55--55--------------------------------------------------|
E------------5--55--55--55--55s3--33--33--33-33-33-33-3break-|

(Ganito din ung adlib ng Lead nyan..)

e------------------------------------------------------------|
B----------------------------------------------------7h87----|
G----------------------------------------------7-7797----97--|
D------------4h54-----------------5h75---578-78--------------|
A--/5---5565-----5-------------------------------------------|
E-----------------5--5578--8887535---------------------------|

e--------------------------------------14------------15------------|
B-81010/11--10h11-10-13-11-10-8----------13-11-12-11---14-11-12-14-|
G------------------------------9-7-5-------------------------------|
D------------------------------------------------------------------|
A------------------------------------------------------------------|
E------------------------------------------------------------------|

e-14-------------15------13-14-11-11h13--13-11-9-8-11-989------------|
B----13-11-12-11----14-11-----------------------------------9h10^7-6-|
G--------------------------------------------------------------------|
D--------------------------------------------------------------------|
A--------------------------------------------------------------------|
E--------------------------------------------------------------------|

VERSE II:
(Do same Chords)
Minsan ay parang wala ng bukas sa buhay natin
Inuman hanggang sa magdamag na para bang tayo'y mauubusan
SA ilalim ng bilog ng buwan mga tiyan nati'y walang laman
Ngunit kahit na walang pera ang bawat gabi'y anong saya
*Refrain


VERSE III: 

(Dito sa VERSE III, gawin nyu lang higher ung notes..parehas lang..)

E			EM7
Minsan ay hindi mo na alam ang nangyayari
F#m			Am			     E
Kahit na anong gawin lahat ng bagay ay mayroong hangganan
	EM7   E7                  A
Dahil ngayon tayo ay nilimot ng kahapon
Am         E        Am                     B
Di na mapipilitang buhayin ang ating pinagsamahan
	G#m hold	A hold    G#m hold      A hold
Ngunit kung sakaling mapadaan baka ikaw ay aking tawagan
	E         B          A         Am
Dahil minsan tayo ay naging tunay na...
	    E-EM7-F#m-A-Am-E
Magka-ibigan

BASS/LEAD:
e-------------------------------------------------------|
B-------------------------------------------------------|
G-------------------------------------------------------|
D-------------------------------------------------------|
A-/7--7-9-7-11--11-12-11-9--9-8-9-9/12--12/14-14-15-19--|
E-------------------------------------------------------|

[Yan lang po.. Paki RATE n lang po .. ^_^]
[Hi na dn po sa akin PLAK!! -mis u]
[Hi dn sa mGA BANDMATES KO!! WOOO --- YONG[]CHARD[]KEL---]
[D'CARRIER! AHAHA!! Actually HUMBLES kmi ^^]
[MGA IV-TRUSTWORTHY!! HI dn..]
[WAG NA kila padooggiee!!]
[HEHEHE>..< ]
[YUN LANG! TSKA sa EHEADS ! ELY at ky BUDDY!! \m/_]
[TUUUUUUUUUUUUUUUUUUUUUUUULLLLLLLEEEEEEEGGGGGGGG!!!] 
minsan btab
Rated: 3.50Reviews: 175

Related Files