Archive, e >> eraserheads

2.90

tindahan ni aling nena ver2 btab

 Intro:

 isang araw!              Pumunta ako...
G--------------------|-----------------------------------|
D--------------------|-----------------------------------|
A--------------------|-----------------------------------|  2x
E---------------4-6-8|--9-99-8-88-6-66-4-44-2-22-3-33-6-4|

        natulala ako..
G--------------------------|------------|
D--------------------------|------------|
A--------------11--------10|----4---4/66|
E-4-6-8--6-8-9-----6-8-9---|--22-233----|

  napasigaw...
G-----------------------------------|                           |---------|
D-----------------------------------|                           |---------|
A-----------------------------------|  2x kaso ung pngalawa may |-9/11-98-|
E--9-99-8-88-6-66-4-44-2-22-3-33-6-4|                           |--------9|

 Panay ang sori ko...                     fills
G--------------------------|------------|------------|
D--------------------------|------------|-6-6/8-6-4-2|
A--------------11--------10|----4---4/66|------------|
E-4-6-8--6-8-9-----6-8-9---|--22-233----|------------|


CHORUS:
                                                    ay di nabibili ng pera
G----------------------------------|------------|    |-------|
D-----------------6----------------|-6-6/8-6-4-2|    |8-6----|
A---6-8--4-6--3-4---4-3----4---4/66|------------| 2x |----8-6|
E-9----8----6------------22-233----|------------|    |-------|


tapos verse ulit  :D
tapos chorus ulit :D
tapos verse ulit  :D

eto ung patapos na...

G-----------------|------------|    |--------|
D-----------------|------------|    |--------|
A-4-6-8-3--1-3-4--|----4---4/66| 2x |-------4|
E----------------4|--22-233----|    |-2--5---|


Ayan meron na kayong bass tab ng kantang to.. :D email me @ buchikoy1001@yahoo.com! 
tindahan ni aling nena ver2 btab
Rated: 2.90Reviews: 671

Related Files