Archive, e >> eskimo joe

black fingernails red wine ver3 btab

 Black Fingernails, Red Wine
Eskimo Joe
Tuning - D#,A,D,G

Intro [no words] [no bass]


Verse 1 [no bass]
Black Fingernails, Red Wine. I wanna make you, all mine. A lot of people, underground. 
wanna get there, you gotta go straight down.

[bass starts]
oho. straight down. oho
D#|----------77777777-33333333------------|
 A|-66666666-------------------6-44444444-|
 D|---------------------------------------|
 G|---------------------------------------|


Verse 2 [no bass]
There's a culture, everywhere. Smoke clouds, hang in the air. It's so loud, can't hear 
talk. You and I, should take a walk downtown.

[bass starts]
oho. straight down. oho. downtown
D#|----------77777777-33333333------------|
 A|-66666666-------------------6-44444444-|
 D|---------------------------------------|
 G|---------------------------------------|

oho. straight down. oho
D#|----------77777777-33333333------------|
 A|-66666666-------------------6-44444444-|
 D|---------------------------------------|
 G|---------------------------------------|


Chorus
The argument over God continues. In this, House
D#|-33333333-55555555-00000000----------|
 A|----------------------------44444444-|
 D|-------------------------------------|
 G|-------------------------------------|

All of us stand and point our fingers. At the, ground
D#|-33333333-55555555-00000000----------|
 A|----------------------------44444444-|
 D|-------------------------------------|
 G|-------------------------------------|

All of us stand and point our fingers
D#|-33333333-55555555-|
 A|-------------------|
 D|-------------------|
 G|-------------------|


Verse 3
oho. straight down. oho
D#|----------77777777-33333333------------|
 A|-66666666-------------------6-44444444-|
 D|---------------------------------------|
 G|---------------------------------------|

Red letter-day, Black heart. It's gonna tear you, all apart. It's so loud, can't hear 
talk. You and I, are gonna fall straight down.

[bass starts]
oho. straight down. oho. downtown
D#|----------77777777-33333333------------|
 A|-66666666-------------------6-44444444-|
 D|---------------------------------------|
 G|---------------------------------------|

oho. straight down. oho
D#|----------77777777-33333333------------|
 A|-66666666-------------------6-44444444-|
 D|---------------------------------------|
 G|---------------------------------------|


Chorus
The argument over God continues. In this, House
D#|-33333333-55555555-00000000----------|
 A|----------------------------44444444-|
 D|-------------------------------------|
 G|-------------------------------------|

All of us stand and point our fingers. At the, ground
D#|-33333333-55555555-00000000----------|
 A|----------------------------44444444-|
 D|-------------------------------------|
 G|-------------------------------------|

The argument over all continues. In this, House
D#|-33333333-55555555-00000000----------|
 A|----------------------------44444444-|
 D|-------------------------------------|
 G|-------------------------------------|

All of us stand and point our fingers
D#|-33333333-55555555-|
 A|-------------------|
 D|-------------------|
 G|-------------------|


Verse 4
oho. straight down. oho.
D#|----------77777777-33333333------------|
 A|-66666666-------------------6-44444444-|
 D|---------------------------------------|
 G|---------------------------------------|

straight down. oho. straight down
D#|----------77777777-33333333------------|
 A|-66666666-------------------6-44444444-|
 D|---------------------------------------|
 G|---------------------------------------|

[no bass]
Black fingernails, Red Wine. I wanna make you, all mine. A lot of people, underground. 
wanna get there, you gotta go straight down.

[no words]


Chorus
The argument over God continues. In this, House
D#|-33333333-55555555-00000000----------|
 A|----------------------------44444444-|
 D|-------------------------------------|
 G|-------------------------------------|


All of us stand and point our fingers. At the, ground
D#|-33333333-55555555-00000000----------|
 A|----------------------------44444444-|
 D|-------------------------------------|
 G|-------------------------------------|


The argument over all continues. In this, House
D#|-33333333-55555555-00000000----------|
 A|----------------------------44444444-|
 D|-------------------------------------|
 G|-------------------------------------|


All of us stand and point our fingers
D#|-33333333-55555555-|
 A|-------------------|
 D|-------------------|
 G|-------------------|


Outro
oho. straight down. oho. straight down. oho. straight down. oho
D#|-00000000----------33333333-55555555-00000000----------|
 A|----------44444444----------------------------44444444-|
 D|-------------------------------------------------------|
 G|-------------------------------------------------------|

D#|-33333333-55555555-0-|
 A|---------------------|
 D|---------------------|
 G|---------------------| 

Related Files