Archive, f >> fleeing from finales

2.00

mightyducks vs thundercats tab

 -------------------------------------------------------------------------------
   Mighty Ducks vs Thundercats - Fleeing From Finales
-------------------------------------------------------------------------------
Tabbed by: Alex
Email: alex_g_12@hotmail.com

Tuning: Drop D

Electric guitar part only acoustic is quite similar, easy to work out

e|----------------------------------------------------------------------------------|
B|----------------------------------------------------------------------------------|
G|---6-4------------------9--4------------------------------------------------------|
D|---6-4-7-x3-------------9--4------------------------------------------------------|
A|---4-2-7----------------7--2------------------------------------------------------|
D|-------7--------------------------------------------------------------------------|

e|------------------------------------------------------------------------|
B|------------------------------------------------------------------------|
G|-----6-4-------------------------------9-9-9-9-9-9-9-9-9-4-4-4-4-4-4-4--|
D|-----6-4-4-4-4-4-4-4-4-4-7-7-7-7-7-7-7-9-9-9-9-9-9-9-9-9-4-4-4-4-4-4-4--|
A|-----4-2-4-4-4-4-4-4-4-4-7-7-7-7-7-7-7-7-7-7-7-7-7-7-7-7-2-2-2-2-2-2-2--|
D|--xx-----4-4-4-4-4-4-4-4-7-7-7-7-7-7-7----------------------------------|

e|------------------------------------------------------------------------|
B|------------------------------------------------------------------------|
G|-----6-4-------------------------------9-9-9-9-9-9-9-9-9-4-4-4-4-4-4-4--|
D|-----6-4-4-4-4-4-4-4-4-4-7-7-7-7-7-7-7-9-9-9-9-9-9-9-9-9-4-4-4-4-4-4-4--|
A|-----4-2-4-4-4-4-4-4-4-4-7-7-7-7-7-7-7-7-7-7-7-7-7-7-7-7-2-2-2-2-2-2-2--|
D|--xx-----4-4-4-4-4-4-4-4-7-7-7-7-7-7-7----------------------------------|


Same Chords All way through just in different time scales,

proper easy to learn

| /  slide up
| \  slide down
| h  hammer-on
| p  pull-off
| ~  vibrato
| +  harmonic
| x  Mute note
=============================================================================== 
mightyducks vs thundercats tab
Rated: 2.00Reviews: 463