Archive, f >> foo fighters

rope btab

 -----------------------------------------------------------------------------
			     Foo Fighters - Rope
-----------------------------------------------------------------------------

Tabbed By : flx
e-mail: roescht@gmx.net


Verse 1:
G|-------------|----------------------------------------------------|
D|-------------|----------------------------------------------------|
A|-222-7-5-0---|-2-22-5-2---9-99-12-9---5-55-3-5---5-55-3-5-0~------|
E|-------------|----------------------------------------------------|

G|------------------------------------------------------------------|
D|------------------------------------------------------------------|
A|-2-22-5-2---9-99-12-9---8-88-7-8---8-88222-7-5-0------------------|
E|------------------------------------------------------------------|

G|------------------------------------------------------------------|
D|------------------------------------------------------------------|
A|-2-22-5-2---9-99-12-9---5-55-3-5---5-55-3-5-0~--------------------|
E|------------------------------------------------------------------|

G|------------------------------------------------------------------|
D|------------------------------------------------------------------|
A|-2-22-5-2---9-99-12-9---5-55-3-5---5-55222-7-5-0------------------|
E|------------------------------------------------------------------|

G|------------------------------------------------------------------|
D|------------------------------------------------------------------|
A|-2-22-5-2---9-99-12-9---5-55-3-5---5-55-3-5-0~--------------------|
E|------------------------------------------------------------------|

G|------------------------------------------------------------------|
D|-------------------------12/14------------------------------------|
A|---------------9-99-12-9---------5-55-3-5---5-55222-7-5-0---------|
E|-7-77-5-7\1/12----------------------------------------------------|

G|------------------------------------------------------------------|
D|------------------------------------------------------------------|
A|-2-22-5-2---9-99-12-9---5-55-3-5---5-55-3-5-0~--------------------|
E|------------------------------------------------------------------|

G|------------------------------------------------------------------|
D|------------------------------------------------------------------|
A|-2-22-5-2---9-99-12-9---5-55-3-5---5-55222-7-5-0------------------|
E|------------------------------------------------------------------|



Chorus (3x):				(4th time this)
G|-------------------------------------|----------------------------|
D|-------------------------------------|----------------------------|
A|-------------------------------------|----------------------------|
E|-3333333/\00000000-77777777-55555555-|-3(x8)-4(x8)-5(x8)-6(x8)----|
  	  ||
  (just slide a little bit up and down)


Verse 2:
G|-----------------------------------------------------------------|
D|-----------------------------------------------------------------|
A|-2-22-5-2---9-99-12-9---5-55-3-5---5-55-3-5-0~-------------------|
E|-----------------------------------------------------------------|

G|-----------------------------------------------------------------|
D|-----------------------------------------------------------------|
A|-2-22-5-2---9-99-12-9---1-11-0-1---1-11222-7-5-0-----------------|
E|-----------------------------------------------------------------|

G|-----------------------------------------------------------------|
D|-----------------------------------------------------------------|
A|-2-22-5-2---9-99-12-9---5-55-3-5---5-55-3-5-0~-------------------|
E|-----------------------------------------------------------------|

G|-----------------------------------------------------------------|
D|-----------------------------------------------------------------|
A|-2-22-5-2---9-99-12-9---5-55-3-5---5-55222-7-5-0-----------------|
E|-----------------------------------------------------------------|

G|-----------------------------------------------------------------|
D|-----------------------------------------------------------------|
A|-2-22-5-2---9-99-12-9--15\-55-3-5---5-55-3-5-0~------------------|
E|-----------------------------------------------------------------|

G|-----------------------------------------------------------------|
D|-----------------------------------------------------------------|
A|-2-22-5-2---9-99-12-9---5-55-3-5---5-55222-7-5-0-----------------|
E|-----------------------------------------------------------------|



Chorus (3x):				(4th time this)
G|--------------------------------------|-------------------------|
D|--------------------------------------|-------------------------|
A|--------------------------------------|-------------------------|
E|-3333333/\00000000-77777777-55555555--|-3(x8)-4(x8)-5(x8)-6(x8)-|




Bridge(4x):		Solo (x8):
G|-------------|--------------------------------|
D|--------0-2--|--------------------------------|
A|--2-0-2------|-------5-7----------------------|
E|-------------|-7-5-7---------3-33-5-0-0-------|



Chorus (4x):				(5th time this)
G|-------------------------------------|---------------------------|
D|-------------------------------------|---------------------------|
A|-------------------------------------|---------------------------|
E|-3333333/\00000000-77777777-55555555-|-3(x8)-4(x8)-5(x8)-6(x8)---|


Outro:
G|-------------|---------------------------------------------------|
D|-------------|---------------------------------------------------|
A|-222-7-5-0---|-2-22-5-2---9-99-12-9---5-55-3-5---5-55222-7-5-0---|
E|-------------|---------------------------------------------------|




| /  slide up
| \  slide down
| h  hammer-on
| p  pull-off
| ~  vibrato
| +  harmonic
| x  Mute note
============================================================================= 

Related Files