Archive, f >> funeral diner

decline btab

 Tabbed By : Cale
e-mail: canman33@att.net
Tuning: Standard (EADG)

I'm not going to do the exact rhythm, since some of the notes 
are played more swing-styled(especially in 2:50-end), but this
should be about right. Also, this song is obviously a big 
crescendo until about 2:50, so, you know, start soft then get
louder and louder with each phrase. It's an easy song and I
know I over-complicated it, but have fun playing!

G|----------------------------------------------------|
D|----------------------------------------------------|
A|-7-----5-----9-----7-----3-----5-----5-7---7--------|
E|-----------------------------------------0----------|

G|----------------------------------------------------|
D|-------------4-------------------------------9------|
A|-7-----5-----------7-----3---3-5-----5-7---7--7-----|
E|-----------------------------------------0----------|

G|----------------------------------------------------|
D|---9-----7-----11-----------5-----7-----------------|
A|-7---7-5---5-9----9-7-----3---3-5---5-5-7---7-------| 2X
E|------------------------------------------0---------|

G|----------------------------------------------------|
D|---9-----7-----11-----------5-----7-----------------|
A|-7---7-5---5-9----9-7---7-3---3-5---5-5-7---7-------|
E|------------------------------------------0---------|

G|----------------------------------------------------|
D|---9-----7-----11-----9-----5-----7-----------------|
A|-7---7\5---5-9----9-7---7-3---3-5---5-5-7---7-------|
E|------------------------------------------0---------|

G|----------------------------------------------------|
D|-9---9-7-----11--11-9-----5---5-7---7-7-9-7-9-------|
A|-7---7-5-----9---9--7-----3---3-5---5-5-7-5-7-------|
E|------------------------------------------0---------|

G|----------------------------------------------------|
D|-9---9-7---7-11--11-9-----5---5-7---7-7-9-7-9-------|
A|-7---7-5---5-9---9--7-----3---3-5---5-5-7-5-7-------|
E|------------------------------------------0---------|

G|----------------------------------------------------|
D|-------9---9-------9---9-------7---7---7------------|
A|-7--7-7--7---7--7-7--7---5--5-5--5------------------|
E|-------------------------------------5---5-7--------|

G|----------------------------------------------------|
D|-------9---9-------9---9--------7/9-9---7-----9-----|
A|-7--7-7--7---7-7--7--7---5--5-5---------------------|
E|--------------------------------------5---5-7---7---|

G|----------------------------------------------------|
D|-------9---9-------9---9-------7---7---7-----9------|
A|-7--7-7--7---7--7-7--7---5--5-5--5------------------|
E|-------------------------------------5---5-7---7----|

G|----------------------------------------------------|
D|-------9---9-------------------7---7---7-----9------|
A|-7--7-7--7---7--7-7/9--9-5--5-5--5------------------|
E|-------------------------------------5---5-7---7----|

G|----------------------------------------------------|
D|-------9---9-------9---9-------7---7---7-----9------|
A|-7--7-7--7---7--7-7--7---5--5-5--5------------------|
E|-------------------------------------5---5-7---7----|

G|----------------------------------------------------|
D|-------9---9-------9-----------7---7---7-----9------|
A|-7--7-7--7---7--7-7--7-9-5--5-5--5------------------|
E|-------------------------------------5---5-7---7----|

G|----------------------------------------------------|
D|-------9---9-------------------7---7---7-----9------|
A|-7--7-7--7---7--7-7/9--9-5--5-5--5------------------|
E|-------------------------------------5---5-7---7----|

| /  slide up
| \  slide down
| h  hammer-on
| p  pull-off
| ~  vibrato
| +  harmonic
| x  Mute note
 

Related Files