Archive, g >> go fiction

california mansions intro tab

 ------------------------------------------------------------------------------
			     California Mansions – Go Fiction
-------------------------------------------------------------------------------
Tabbed by:  Doug McDaniel
Email:  McDaniel1752@yahoo.com

	I’m not sure if this is right but it sounds somewhat like the song.  If you haven’t
this band go to www.myspace.com/gofiction and listen to this song as well as many 
www.go-fiction.com

Tuning:

e|------------------------------------------------------------------|
B|------------------------------------------------------------------|
G|----------------6------------5-------------4-------4-------3---3--|
D|----------7---7---7---7----6-----6-------5---5---5---5---4---4----|
A|--------7---7-------7----6---------6---5-------5-------4----------|
E|------------------------------------------------------------------|

e|-----------------------------------------------------------|
B|-----------------------------------------------------------|
G|----------------6-----------5-----------4-------4-------3--|
D|----------7---7---7---7---6---6-------5---5---5---5---4----|
A|--------7---7-------7---6-------6---5-------5-------4------|
E|-----------------------------------------------------------|