Archive, h >> hawk nelson

2.60

zero tab

 intro: guitar 1
e-------------------3--3---3----3--3---3----3--3---3-------------->
B-------------------5--5---5----5--5---5----5--5---5-------------->
G-------------------5--5---5----5--5---5----5--5---5----7--7---7-->
D--(piano)----------------------------------------------5--5---5-->
A----------------3~----------------------------------------------->
D----------------------------5~----------3~----------5~----------->

verse 1: guitar 1
e-------------------------------------------------->
B-------------------------------------------------->
G----7--7---7----7--7---7----7--7---7----7--7---7--> repeat
D----5--5---5----5--5---5----5--5---5----5--5---5-->
A-3~----------------------------------------------->
D-------------5~----------3~----------5~----------->
Your Life dreams are shattered, now you're gone away. We've cried here for
hours, and the hours turn to days. We know you regret this, leaving us
here, with portraits and memories that we've held so dear.

pre-chorus: guitar 2
e--------------------------------------------------11111->
B--------------------------------------------------11111->
G----------------------------5555555555555-3333333333333->
D-7777777777777-555555555555-5555555555555-3333333333333->
A-7777777777777-555555555555-3333333333333-1111111111111->
D-7777777777777-555555555555----------------------------->
  ************* ************ ************* *******
When I hear your name, it's not the same. No matter what they say, I'm not
okay.

chorus: guitar 2
e-3333333333333--------------3333333333333-------------->
B-3333333333333-888888888888-6666666666666-888888888888->
G-5555555555555-777777777777-5555555555555-777777777777->
D-5555555555555-555555555555-3333333333333-555555555555-> repeat
A-3333333333333-555555555555-3333333333333-555555555555->
D---------------555555555555-3333333333333-555555555555->
and we started at zero, and went different ways. Now we're all out here
wasting away. And if we started at zero, then how did things change? It
seems like just yesterday we were the

fill 1: piano
same...

verse 2: guitar 1
e-------------------------------------------------->
B-------------------------------------------------->
G----7--7---7----7--7---7----7--7---7----7--7---7--> repeat
D----5--5---5----5--5---5----5--5---5----5--5---5-->
A-3~----------------------------------------------->
D-------------5~----------3~----------5~----------->
It's been 3 months since he left us. so far nothing's been the same. and my
question without answer is: Am I the one to blame? He was such a good
description of a favored future man. He spoke well of other people, and
they said the same for him.

---REPEAT PRE-CHORUS
---REPEAT CHORUS

fill 2: guitar 1
e---------------------------------------------------------------------->
B-------888--------------888--------------888--------------888--------->
G----555---555--7h9---777---777--7h9---555---555--7h9---777---777--7h9->
D-555---------55---555---------55---555---------55---555---------55---->
A---------------------------------------------------------------------->
D---------------------------------------------------------------------->
  ******   *****   ******   *****   ******   *****   ******   *****
same... we were the same

bridge: guitar 1
e----------------------------------------------------------------------->
B-------888--------------888--------------888------888------555---5h6p5->
G----555---555--7h9---777---777--7h9---555------555------555---555------>
D-555---------55---555---------55---777------666------333--------------->
A----------------------------------------------------------------------->
D----------------------------------------------------------------------->
  ******   *****   ******   *****   ******   ******   ******   ***
they say they're sorry, well what are they sorry for? How can they possible
know what I'm going through? I feel like no one's ever had to deal with the
pain that I'm dealing with right now.

bridge: guitar 1
e------------------------------------------------------>
B-------888--------------888--------------888------888->
G----555---555--7h9---777---777--7h9---555------555---->
D-555---------55---555---------55---777------666------->
A------------------------------------------------------>
D------------------------------------------------------>
  ******   *****   ******   *****   ******   ******
Just 6 months ago everything was fine or so it seemed. what turn of event
caused him to go downhill? his parents are devastated. his girlfriend's
depressed. What was he thinking!? 

---REPEAT CHORUS

chorus: guitar 2
e-3333333333333--------------3333333333333-------------->
B-3333333333333-888888888888-6666666666666-888888888888->
G-5555555555555-777777777777-5555555555555-777777777777->
D-5555555555555-555555555555-3333333333333-555555555555-> repeat
A-3333333333333-555555555555-3333333333333-555555555555->
D---------------555555555555-3333333333333-555555555555->
and we started at zero, and went different ways. Now we're all out here
wasting away wasting away wasting away wasting away

solo: (play chorus during this)
e----------------------------------------------->
B----------------------------------------------->
G----5-7~----5-7/9-5----5-7-4h5p4--------------->
D-5h7-5---5h7-5------5h7-5-------5h7p5---------->
A-------------------------------------7p5~------>
D----------------------------------------------->

solo:
e----------------------------------------------->
B-------------------------------------5/8------->
G----5-7~----5-7/9-5----5-7-4h5p4---------7-5~-->
D-5h7-5---5h7-5------5h7-5-------5h7p5---------->
A----------------------------------------------->
D----------------------------------------------->

chorus: piano
And we started at zero And went different ways Now we're all out here
wasting away And if we started at zero Then how did things change? It seems
like just yesterday we were the same We were the same We were the same

ending chord:
e-3~-------->
B-3~-------->
G-5~-------->
D-5~-------->
A-3~-------->
D-----------> 
zero tab
Rated: 2.60Reviews: 317