Archive, h >> him

the sacrament intro tab

 This is the piano intro played on guitar:

E--0-------0-------0-------5-------3-----------------------------------------|
B----1-0-1---1-0-1---1-0-1---------------------------------------------------|
G----------------------------5-4-5---4-2-4-4-2-4-4-2-4-4-2-4-----------------|
D----------------------------------------------------------------------------|
A----------------------------------------------------------------------------|
E----------------------------------------------------------------------------|

E--0-------0-------0-------5-------3-----------------------------------------|
B----1-0-1---1-0-1---1-0-1---------------------------------------------------|
G----------------------------5-4-5---4-2-4-4-2-4-4-2-4-4-2-4-----------------|
D----------------------------------------------------------------------------|
A----------------------------------------------------------------------------|
E----------------------------------------------------------------------------|

E--0-------0-------0-------5-------3-------------2---------------------------|
B----1-0-1---1-0-1---1-0-1---------------------------------------------------|
G----------------------------5-4-5---4-2-4-4-2-4---2-0-2-2-0-2---------------|
D----------------------------------------------------------------------------|
A----------------------------------------------------------------------------|
E----------------------------------------------------------------------------|

E--0-------0-------0-------5-------3-----------------------------------------|
B----1-0-1---1-0-1---1-0-1---------------------------------------------------|
G----------------------------5-4-5-------------------------------------------|
D----------------------------------------------------------------------------|
A----------------------------------------------------------------------------|
E----------------------------------------------------------------------------|