Archive, j >> jason mraz

boys gone intro ver2 tab

 Tabbed by: omidahomi712
Email: oyl712@aol.com

Tuning: Standard

e|---------------------------------------------------------------------------|
B|---------------------------------------------------------------------------|
G|-----4------4------------4-----------4-----------4--------1----------------|
D|-----2------2------------4-----------4-----------6--------4----------------|
A|-4-------4-----4------2-------2---2-----2--------6--------2----6-----------|
E|---------------------------------------------0------0--------0-------------|

e|---------------------------------------------------------------------------|
B|---------------------------------------------------------------------------|
G|-----6-----------5---------------------------------------------------------|
D|-----4-----------6---------------------------------------------------------|
A|--------------------6------------------------------------------------------|
E|-4--------4----------------------------------------------------------------|

He plays this a couple of times as a verse nd thats all i got...feedback?