Archive, j >> jason mraz

bright eyes intro tab

 I listened to the song and just picked it out, it's really rather simple...enjoy.

Intro:
e|---------------------------------------------------------|
B|---------------------------------------------------------|
G|------6-------6-----------7-7-----6----------------------|
D|------7-------7-------0---9-9---9---9-7------------------|
A|--0-------0-------0--------------------------------------|
E|---------------------------------------------------------|

  ...bright lights, big city
e|---------------------------------------------------------|
B|---------------------------------------------------------|
G|------6-------6-----------7-7-----6----------------------|
D|------7-------7-------0---9-9---9---9-7------------------|
A|--0-------0-------0--------------------------------------|
E|---------------------------------------------------------|

If you have any questions email me:cfullyfulton@yahoo.com