Archive, j >> jason mraz

bright eyes ver2 tab

 This song is actually really simple and i've not found one accurate tab so I've
decided to tab it myself since its a great song easy to play and sing.

Bright Eyes
-----------

///INTRO

      A

e|--------------------------------------|
B|-------2-------2------6-6-------------|
G|-------2-------2------4-4--4-6-4------|
D|---------------------------------7----|
A|--0-------0-0-----0-5----5------------|
E|--------------------------------------|

      A

e|--------------------------------------|
B|-------2-------2------6-6-------------|
G|-------2-------2------4-4-------------|
D|--------------------------------------|
A|--0-------0-0-----0-5-----------------|
E|--------------------------------------|


///Then when he starts singing you might as well arpegy the chords
///A: 00222X
///#: 05046X

///this way

e|-------------------------------------------------------|
B|----------2-----------2----------6-------6-------------|
G|----------2-----------2----------4-------4-----4-------|
D|------2------------2-----------0-------0-------0-------|
A|--0------------0--------0---0-------0------0-----------|
E|-------------------------------------------------------|

///and in the 4th verse you play the 2nd part of the intro so it'd be like this

e|-------------------------------------------------------|
B|----------2-----------2----------6-------6-------------|
G|----------2-----------2----------4-------4-----4-------|
D|------2------------2-----------0-------0-------0-------|
A|--0------------0--------0---0-------0------0-----------|
E|-------------------------------------------------------|

   \\" Bright lights    big city, was quite extraordinary ...\\" 

e|-------------------------------------------------------|
B|----------2-----------2----------6-------6-------------|
G|----------2-----------2----------4-------4-----4-------|
D|------2------------2-----------0-------0-------0-------|
A|--0------------0--------0---0-------0------0-----------|
E|-------------------------------------------------------|

 \\" the drive  was pretty   I was in perfect company\\" 

e|-------------------------------------------------------|
B|----------2-----------2----------6-------6-------------|
G|----------2-----------2----------4-------4-----4-------|
D|------2------------2-----------0-------0-------0-------|
A|--0------------0--------0---0-------0------0-----------|
E|-------------------------------------------------------|

  \\" The love of a lifetime   since we were ...\\" 


e|------------------------------------------------|
B|----------2-----------2---------6-6-------------|
G|----------2-----------2---------4-4--4-6-4------|
D|------2------------2----------------------7-----|
A|--0------------0--------0---5------5------------|
E|------------------------------------------------|

   \\" the one with the bright eyes\\" 


/// Then, you continue to arpegy from the

/// \\" Why can't I be optimistic\\"  to the

/// \\" Was standing up there naked\\" 

/// and repeat the intro


/// The song pretty much goes on the same but there is a chord that seem to be missing 
all tabs
/// In the part where he says \\" growing older more into a man..\\"  you use the # chord up 
fret so you play

A                                  #                              A
\\" Theres fear in the truth at hand, frozen I forgot to understand\\" 

A                      #                        #+ (X6057X)
\\" The live keep living; growing older more into a man..\\" 

   A    #                        INTRO
\\" And I let her grow away from me.\\" 

/// The same happens in the next part where


 A      #                   A
\\" Love.. love is not pretending.\\" 

 A      #                        A
\\" Time.. time was meant for mending\\" 

 A                        #
\\" Memories into all is satisfactory,\\" 

           A               #                       #+ (X6057X)
\\" Healthy smiles fill the page the day we spent in miles.\\" 

   A    #                        A
\\" And I let her drive away from me.\\" 


/// Bridge

A|-------------------0------------------|
E|-0--2---0--4---0----------------------|

/// Next verses same as before.

/// And for the ending you have


e|----------------------0--------0--------------------------|
B|-------2-----2--------0--------0--------------------------|
G|-------2-----2--------------------------------------------|
D|------------------2--------2---------(GO ON THIS WAY)-----|
A|----0-----0------2--------2-------------------------------|
E|--0------0------------------------------------------------|

                 \\" And I, I'll never take that day away\\" 

e|---------------------|
B|-------2-----2-------|
G|-----2-----2---------|
D|---2-----0-----------|
A|---------------------|
E|---------------------|
    \\" from me\\" 


     A    E   A
\\" oh no\\" 


/// That's it any comments at damianmartone@gmail.com
/// For the live version just put a capo in the 1st fret or tune up the guitar but the 
are the same, also you can arpegy the A chord every time as in the ending part and it'll 
more accurate.