Archive, j >> jason mraz

bright eyes ver4 tab

 Jason Mraz - Bright Eyes
Tab based off the Live at Java Joe's Version

Tabbed by cbondrajr@hotmail.com

e|-----------------4-4-------|
B|-----5-----5-----3-3--5p3--|
G|-----5-----5-------------5-|
D|---------------3-----3-----| Repeat
A|---3---3-3----3------------|
E|---------------------------|

When he walks back up it's just:

e|-----------------3----------------|
B|--5----5--------------------------|
G|--5----5-----4----4----4----------|
D|--------------5----5---5----------|
A|-3--3-3-3------5--------------2-3-|
E|-----------3---------3---3--5-----|

That's the jist of it. I just wanted to tab it because its the only way
that sounds right. I haven't seen a close tab yet.