Archive, j >> jason mraz

coyotes intro tab

 -------------------------------------------------------------------------------
           Coyotes (Beautiful Mess Live on Earth) INTRO - Jason Mraz
-------------------------------------------------------------------------------
Tabbed by: BeautifulMessss
Email: x20oblivion09x@aol.com

Tuning: Standard

e|---------------------------------------------------------------------------|
B|-----3/4-4-3-1-3-----------------------------------------------------------|
G|------------------3p0-0-3-1----1-0-----------------------------------------|
D|------------------------------------3-1-1h3p1p0----------------------------|
A|---------------------------------------------------------------------------|
E|---------------------------------------------------------------------------|

e|---------------------------------------------------------------------------|
B|-----3/4-4-3-1-3-----------------------------------------------------------|
G|------------------3p0-0-3-1----1-0-----------------------------------------|
D|------------------------------------3-1-1h3p1p0----------------------------|
A|---------------------------------------------------------------------------|
E|---------------------------------------------------------------------------|

That's what I think it is, it sounds right to me. RATE. COMMENT. :)

************************************

| /   slide up

************************************ 

Related Files