Archive, j >> jason mraz

curbside prophet tab

 Jason Mraz
Curbside Prophet
NO CAPO! (don't use it...put it down!)
by: adam pfister (pfister.adam@students.uwlax.edu)

Whole Song:
e-----------------------------------------------
B--------------8\-------1-----------------------
G-----4--------7\-------2---------0-------0-----
D-----5--------7\-------2-------0-------0-------
A-----------------------------5-------3---------
E--3-3--x--8-8---x--1-1--x--6-------5-----------

Banjo Fill:
e-------------------
B--8-6--------------
G------5-5h7p5------
D--------------8-5--
A-------------------
E-------------------


-this song is way too much fun to play. the (x) is a thumb slap. kinda tricky at first