Archive, j >> jason mraz

curbside prophet ver2 tab

 Jason Mraz

Curbside Prophet

Tabbed by Chris Martinez (Chris.Martinez422@gmail.com)

This is a fairly simple song with a repetitive riff for the entire song


     1   + a   2   +   3  + a     4   +     
   e-------------------------------------|
   B------------------------8\-----------|
   G-------4----------------7\-----------|
   D-------5----------------7\-----------|
   A---------------0---------------------|
   E--3--3-----x-------8--8-------x---0--|

     1   + a   2   +   3 e  +  a   4 e  +  a
   e------------------------------------------|
   B-------1----------------------------------|
   G-------2--------------------0----------0--|
   D-------2----------------0-----------0-----|
   A--------------0------5-----------3--------|
   E--1--1----x-------6------------5----------|