Archive, j >> jason mraz

details in the fabric tab

 This is a really fun tab, I use my thumb for A and D, first finger for G, second for B, 
third for the little e.

Capo on 6

Intro/Verse 1
---------0-------0---------0-------0---------1-------1---------1-------1--|
-----1-----1---1-------1-----1---1-------2-----2---2-------2-----2---2----|
-----0-------0---------0-------0---------1-------1---------1-------3------| x2
---2-----------2-----2-----------2-----3-----------3-----3-----------3----|
-0-----0-----------0-----0-----------4-----4-----------4-----4------------|
--------------------------------------------------------------------------|

Interlude
---------0-------0---------0------0---------1-------1-------------------|
-----1-----1---1-------1-----1---1------2-----2---2---------------------|
-----0-------0---------0-------0--------1-------1-----------------------|
---2-----------2-----2-----------2----3-----------3---------------------|
-0-----0-----------0-----0----------4-----4-----------4-----------------|
------------------------------------------------------------------------|

Verse 1 x 5

Interlude

Chorus
---------1-------1---------0-------0---------3-------3---------3-------3--|
-----2-----2---2-------1-----1---1-------1-----1---1-------1-----1---1----|
-----1-------1---------0-------0---------0-------0---------0-------0------| x2
---3-----------3-----2-----------2-----2-----------2-----2-----------2----|
-4-----4-----------3-----3-----------0-----0-----------0-----0------------|
--------------------------------------------------------------------------|

Bridge
---------1-------1---------1-------1------------------------------------|
-----1-----1---1-------1-----1---1--------------------------------------|
-----2-------2---------2-------2----------------------------------------|
---3-----------3-----3-----------3--------------------------------------|
-3-----3-----------3-----3-----------0----------------------------------|
------------------------------------------------------------------------|

Verse 1 x3

Interlude

Chorus x2

Bridge 2
---------1-------1---------1-------1---------3-------3---------3-------3-|
-----1-----1---1-------1-----1---1-------1-----1---1-------1-----1---1---|
-----2-------2---------2-------2---------0-------0---------0-------0-----|
---3-----------3-----3-----------3-----2-----------2-----2-----------2---|
-3-----3-----------3-----3-----------0-----0-----------0-----0-----------|
-------------------------------------------------------------------------|

---------1-------1---------1-------1------------------------------------|
-----1-----1---1-------1-----1---1--------------------------------------|
-----2-------2---------2-------2----------------------------------------|
---3-----------3-----3-----------3--------------------------------------|
-3-----3-----------3-----3----------0-----------------------------------|
------------------------------------------------------------------------|

Here's my version of about the first half, I'll do the rest soon.