Archive, j >> jason mraz

details in the fabric ver3 tab

 Tabbed by Paul-Philipp Hagg

Capo on 3rd fret.

Intro
---------0-------------------0-------------------0-------------------0-----------|
-----1-----1--1-1--------1-----1--1-1--------3-----3--3-3--------3-----3--3-3----|
-----0-------0----0------0-------0----0------0-------0----0------0-------0----0--|
---2-------------------2-------------------0-------------------0-----------------|
-0-----0-------0-0---0-----0-------0-0---2-----2-------2-2---2-----2-------2-2---|
---------------------------------------------------------------------------------|

---------0-------------------0-------------------0-------------------0-----------|
-----1-----1--1-1--------1-----1--1-1--------3-----3--3-3--------3-----3--3-3----|
-----0-------0----0------0-------0----0------0-------0----0------0-------0----0--|
---2-------------------2-------------------0-------------------0-----------------|
-0-----0-------0-0---0-----0-------0-0---2-----2-------2-2---2-----2-------2-2---|
---------------------------------------------------------------------------------|

---------0-------------------0-------------------0-------------------------------|
-----1-----1--1-1--------1-----1--1-1--------3-----3--3-3------------------------|
-----0-------0----0------0-------0----0------0-------0----0----------------------|
---2-------------------2-------------------0-------------------------------------|
-0-----0-------0-0---0-----0-------0-0---2-----2-------2-2---2hold---------------|
---------------------------------------------------------------------------------|

(Phone call ends)

---------0-------------------0-------------------0-------------------0-----------|
-----1-----1--1-1--------1-----1--1-1--------3-----3--3-3--------3-----3--3-3----|
-----0-------0----0------0-------0----0------0-------0----0------0-------0----0--|
---2-------------------2-------------------0-------------------0-----------------|
-0-----0-------0-0---0-----0-------0-0---2-----2-------2-2---2-----2-------2-2---|
---------------------------------------------------------------------------------|

---------0-------------------0-------------------0-------------------0-----------|
-----1-----1--1-1--------1-----1--1-1--------3-----3--3-3--------3-----3--3-3----|
-----0-------0----0------0-------0----0------0-------0----0------0-------0----0--|
---2-------------------2-------------------0-------------------0-----------------|
-0-----0-------0-0---0-----0-------0-0---2-----2-------2-2---2-----2-------2-2---|
---------------------------------------------------------------------------------|

Verse 1
---------0-------------------0-------------------0-------------------0-----------|
-----1-----1--1-1--------1-----1--1-1--------3-----3--3-3--------3-----3--3-3----|
-----0-------0----0------0-------0----0------0-------0----0------0-------0----0--|
---2-------------------2-------------------0-------------------0-----------------|
-0-----0-------0-0---0-----0-------0-0---2-----2-------2-2---2-----2-------2-2---|
---------------------------------------------------------------------------------|

---------0-------------------0-------------------0-------------------0-----------|
-----1-----1--1-1--------1-----1--1-1--------3-----3--3-3--------3-----3--3-3----|
-----0-------0----0------0-------0----0------0-------0----0------0-------0----0--|
---2-------------------2-------------------0-------------------0-----------------|
-0-----0-------0-0---0-----0-------0-0---2-----2-------2-2---2-----2-------2-2---|
---------------------------------------------------------------------------------|

---------0-------------------0-------------------0-------------------0-----------|
-----1-----1--1-1--------1-----1--1-1--------3-----3--3-3--------3-----3--3-3----|
-----0-------0----0------0-------0----0------0-------0----0------0-------0----0--|
---2-------------------2-------------------0-------------------0-----------------|
-0-----0-------0-0---0-----0-------0-0---2-----2-------2-2---2-----2-------2-2---|
---------------------------------------------------------------------------------|

---------0-------------------0---------------------------------------------------|
-----1-----1--1-1--------1-----1--1-1--------------------------------------------|
-----0-------0----0------0-------0----0------------------------------------------|
---2-------------------2---------------------------------------------------------|
-0-----0-------0-0---0-----0-------0-0---2hold-----------------------------------|
---------------------------------------------------------------------------------|

Chorus
---------0-------------------0-------------------3-------------------3-----------|
-----1-----1--1-1--------3-----3--3-3--------1-----1--1-1--------1-----1--1-1----|
-----0-------0----0------0-------0----0------0-------0----0------0-------0----0--|
---2-------------------0-------------------2-------------------2-----------------|
-3-----3-------3-3---2-----2-------2-2---0-----0-------0-0---0-----0-------0-0---|
---------------------------------------------------------------------------------|

---------3-------------------0-------------------3-------------------3-----------|
-----1-----1--1-1--------3-----3--3-3--------1-----1--1-1--------3-----3--3-3----|
-----0-------0----0------0-------0----0------0-------0----0------0-------0----0--|
---2-------------------0-------------------2-------------------0-----------------|
-3-----3-------3-3---2-----2-------2-2---0-----0-------0-0---2-----2-------2-2---|
---------------------------------------------------------------------------------|

---------1-------------------1---------------------------------------------------|
-----1-----1--1-1--------1-----1--1-1--------------------------------------------|
-----2-------2----2------2-------2----2------------------------------------------|
---3-------------------3---------------------------------------------------------|
-0-----0-------0-0---0-----0-------0-0---2hold-----------------------------------|
---------------------------------------------------------------------------------|
                                          
Interlude
---------0-------------------0-------------------0-------------------0-----------|
-----1-----1--1-1--------1-----1--1-1--------3-----3--3-3--------3-----3--3-3----|
-----0-------0----0------0-------0----0------0-------0----0------0-------0----0--|
---2-------------------2-------------------0-------------------0-----------------|
-0-----0-------0-0---0-----0-------0-0---2-----2-------2-2---2-----2-------2-2---|
---------------------------------------------------------------------------------|

---------0-------------------0-------------------0-------------------0-----------|
-----1-----1--1-1--------1-----1--1-1--------3-----3--3-3--------3-----3--3-3----|
-----0-------0----0------0-------0----0------0-------0----0------0-------0----0--|
---2-------------------2-------------------0-------------------0-----------------|
-0-----0-------0-0---0-----0-------0-0---2-----2-------2-2---2-----2-------2-2---|
---------------------------------------------------------------------------------|



Verse 2     
---------0-------------------0-------------------0-------------------0-----------|
-----1-----1--1-1--------1-----1--1-1--------3-----3--3-3--------3-----3--3-3----|
-----0-------0----0------0-------0----0------0-------0----0------0-------0----0--|
---2-------------------2-------------------0-------------------0-----------------|
-0-----0-------0-0---0-----0-------0-0---2-----2-------2-2---2-----2-------2-2---|
---------------------------------------------------------------------------------|

---------0-------------------0-------------------0-------------------------------|
-----1-----1--1-1--------1-----1--1-1--------3-----3--3-3------------------------|
-----0-------0----0------0-------0----0------0-------0----0----------------------|
---2-------------------2-------------------0-------------------------------------|
-0-----0-------0-0---0-----0-------0-0---2-----2-------2-2---2hold---------------|
---------------------------------------------------------------------------------|

Chorus
---------3-------------------0-------------------3-------------------3-----------|
-----1-----1--1-1--------3-----3--3-3--------1-----1--1-1--------1-----1--1-1----|
-----0-------0----0------0-------0----0------0-------0----0------0-------0----0--|
---2-------------------0-------------------2-------------------2-----------------|
-3-----3-------3-3---2-----2-------2-2---0-----0-------0-0---0-----0-------0-0---|
---------------------------------------------------------------------------------|

---------3-------------------0-------------------3-------------------3-----------|
-----1-----1--1-1--------3-----3--3-3--------1-----1--1-1--------3-----3--3-3----|
-----0-------0----0------0-------0----0------0-------0----0------0-------0----0--|
---2-------------------0-------------------2-------------------0-----------------|
-3-----3-------3-3---2-----2-------2-2---0-----0-------0-0---2-----2-------2-2---|
---------------------------------------------------------------------------------|

---------1-------------------3-------------------1-------------------------------|
-----1-----1--1-1--------3-----3--3-3--------1-----1--1-1------------------------|
-----2-------2----2------0-------0----0------2-------2----2----------------------|
---3-------------------0-------------------3-------------------------------------|
-0-----0-------0-0---2-----2-------2-2---0-----0-------0-0---2hold---------------|
---------------------------------------------------------------------------------|

Bridge
---------3-------------------0-------------------3-------------------3-----------|
-----1-----1--1-1--------3-----3--3-3--------1-----1--1-1--------1-----1--1-1----|
-----0-------0----0------0-------0----0------0-------0----0------0-------0----0--|
---2-------------------0-------------------2-------------------2-----------------|
-3-----3-------3-0---2-----2-------2-2---0-----0-------0-0---0-----0-------0-0---|
---------------------------------------------------------------------------------|

---------3-------------------0-------------------3-------------------3-----------|
-----1-----1--1-1--------3-----3--3-3--------1-----1--1-1--------3-----3--3-3----|
-----0-------0----0------0-------0----0------0-------0----0------0-------0----0--|
---2-------------------0-------------------2-------------------0-----------------|
-3-----3-------3-0---2-----2-------2-2---0-----0-------0-0---2-----2-------2-2---|
---------------------------------------------------------------------------------|

---------1-------------------3-------------------1-------------------3-----------|
-----1-----1--1-1--------3-----3--3-3--------1-----1--1-1--------3-----3--3-3----|
-----2-------2----2------0-------0----0------2-------2----2------0-------0----0--|
---3-------------------0-------------------3-------------------0-----------------|
-0-----0-------0-0---2-----2-------2-2---0-----0-------0-0---2-----2-------2-2---|
---------------------------------------------------------------------------------|

---------1-----------------------------------------------------------------------|
-----1-----1--1-1----------------------------------------------------------------|
-----2-------2----2--------------------------------------------------------------|
---3-----------------------------------------------------------------------------|
-0-----0-------0-0---2hold-------------------------------------------------------|
---------------------------------------------------------------------------------|

Chorus
---------3-------------------0-------------------3-------------------3-----------|
-----1-----1--1-1--------3-----3--3-3--------1-----1--1-1--------1-----1--1-1----|
-----0-------0----0------0-------0----0------0-------0----0------0-------0----0--|
---2-------------------0-------------------2-------------------2-----------------|
-3-----3-------3-3---2-----2-------2-2---0-----0-------0-0---0-----0-------0-0---|
---------------------------------------------------------------------------------|

---------3-------------------0-------------------3-------------------3-----------|
-----1-----1--1-1--------3-----3--3-3--------1-----1--1-1--------1-----1--1-1----|
-----0-------0----0------0-------0----0------0-------0----0------0-------0----0--|
---2-------------------0-------------------2-------------------2-----------------|
-3-----3-------3-3---2-----2-------2-2---0-----0-------0-0---0-----0-------0-0---|
---------------------------------------------------------------------------------|

---------3-------------------0-------------------3-------------------3-----------|
-----1-----1--1-1--------3-----3--3-3--------1-----1--1-1--------1-----1--1-1----|
-----0-------0----0------0-------0----0------0-------0----0------0-------0----0--|
---2-------------------0-------------------2-------------------2-----------------|
-3-----3-------3-3---2-----2-------2-2---0-----0-------0-0---0-----0-------0-0---|
---------------------------------------------------------------------------------|

---------3-------------------0-------------------3-------------------3-----------|
-----1-----1--1-1--------3-----3--3-3--------1-----1--1-1--------3-----3--3-3----|
-----0-------0----0------0-------0----0------0-------0----0------0-------0----0--|
---2-------------------0-------------------2-------------------0-----------------|
-3-----3-------3-3---2-----2-------2-2---0-----0-------0-0---2-----2-------2-2---|
---------------------------------------------------------------------------------|

---------1-------------------3-------------------1-------------------3-----------|
-----1-----1--1-1--------3-----3--3-3--------1-----1--1-1--------3-----3--3-3----|
-----2-------2----2------0-------0----0------2-------2----2------0-------0----0--|
---3-------------------0-------------------3-------------------0-----------------|
-0-----0-------0-0---2-----2-------2-2---0-----0-------0-0---2-----2-------2-2---|
---------------------------------------------------------------------------------|

---------1-----------------------------------------------------------------------|
-----1-----1--1-1----------------------------------------------------------------|
-----2-------2----2--------------------------------------------------------------|
---3-----------------------------------------------------------------------------|
-0-----0-------0-0---2hold-------------------------------------------------------|
---------------------------------------------------------------------------------|

Outro (phone call starts again. repeat until song finishes)
---------0-------------------0-------------------0-------------------0-----------|
-----1-----1--1-1--------1-----1--1-1--------3-----3--3-3--------3-----3--3-3----|
-----0-------0----0------0-------0----0------0-------0----0------0-------0----0--|
---2-------------------2-------------------0-------------------0-----------------|
-0-----0-------0-0---0-----0-------0-0---2-----2-------2-2---2-----2-------2-2---|
---------------------------------------------------------------------------------|