Archive, j >> jason mraz

dynamo of volition tab

 Ok guys, so i came on this site to learn this song and couldnt find a correct tab - so 
a good few hours workin out how to play it like mraz does live/acoustic

one of the other tabs on here has got all the lyrics, and i really cant b arsed to place 
all on here for you, so you'l have to go on another page to find that.


Tuning: drop D


INTRO BIT (which he just does live)

E---------------------------------------|
B---------------------------------------|
G--77xxx77xxx77xxx-12s11----------------|
D--77xxx77xxx77xxx-12s11----------------|    X 2
A--55xxx55xxx55xxx-10s9-----------------|
D--00---00---00-------------------------|


E---------------------------------------|
B---------------------------------------|
G--55xxx55xxx77xxx7~~~------------------|
D--55xxx55xxx77xxx7~~~------------------|
A--33xxx33xxx55xxx5~~~------------------|
D--00---00---00---0---------------------|


Do this one below for 4 bars, then let the last note ring,~ take your time and go 
into the lyrical part...

E--77xxx77xxx22xxx00---------------------|
B--77xxx77xxx22xxx00---------------------|
G--77xxx77xxx22xxx00---------------------|
D--77xxx77xxx22xxx44---------------------|
A--99xxx99xxx44xxx55---------------------|
D--99xxx99xxx44xxx55---------------------|


..the lyrical part (Verse) *START OF RECORDED VERSION

\\" I gt the dynmo of volition the p-pole postion, automatic transmission\\" 

E------------7p------------------------------------2p------------|
B------------7p------------------------------------2p------------|
G------------7p------------------------------------2p------------|
D------------7p------------------------------------2p------------|
A------------9p------------------------------------4p------------|
D------------9p------------------------------------4p------------|

with l-ow emission \\" 

E----0p--------------------------------------------------|
B----0p--------------------------------------------------|
G----0p--------------------------------------------------|and keep repeating this, play around
D----4p--------------if you want, (as in the pull offs)--| with it
A----5p--------------------------------------------------|
D----5p--------------------------------------------------|

CHORUS:

Its your choice how many dead note u wanna hit and how u wanna do the timing but 
these are the chords used.

\\" good job,...up high...gimmie high five\\" 

E------7p--x--x-7x-7----x-2p-2p---0--------|
B------7p--x--x-7x-7----x-2p-2p---0--------|
G------7p--x--x-7x-7----x-2p-2p---0--------|
D------7p--x--x-7x-7----x-2p-2p---4--------|
A------9p--x--x-9x-9----x-4p-4p---5~-------|
D------9p--x--x-9x-9----x-4p-4p---5~-------|

Bridge to Chours:

\\" do nt answer call if i do nt know who is callin.... can i get a witness\\" 

E----0-0-----0-------2-2-----2-------0-0-----0-------------------------------|
B----0-0-----0-------2-2-----2-------0-0-----0-------------------------------|
G----0-0-----0-------2-2-----2-------0-0-----0-------------------------------|
D----0-0-----0-------2-2-----2-------4-4-----4----7~~~~--------Repeat 4------|
A----2-2-----2-------4-4-----4-------5-5-----5----7~~~~--------Times---------|
D----2-2-----2-------4-4-----4-------5-5-----5----7~~~~----------------------|