Archive, j >> jason mraz

geek in the pink live tab

 #-----------------------------------------------------------------------------#
#-- File created with Instab - http://www.pconline.com/~smcarey/instab.html --#
#-----------------------------------------------------------------------------#

Author/Artist: Jason Mraz
Title: Geek in the pink (live)
Album: Mr. A-Z (2005)
Transcribed by: omar_frusciante
Email: omar.frusciante@gmail.com

I checked this, and besides the usual jamming that he does, the chords are alright.
I'd like to point out that this version is from live performances from 2007 and later.
Please let me know about any correction and comment that you have. Peace.


Standard Tunning

*the C#/A# note is played with only 3 fingers by mraz, but it seems that he presses 2 
strings down with the pinky. I say this, coz it sounds better with the B string included 
(my opinion...).
*the C#6 can be played also as C# if u want (both sound OK, but u should prefer the C#6; 
mraz mostly does)
*the ways to strum each chord (let ring, staccato, etc) depend on which version you're playing..

CHORDS:

   C#/A#  A#m7  A#m    F#  D#m7   C#6    G#    D#M/C   F
    ---   -6-   -6-   -2-   -6-   -6-   --4--   ---   -1-
    -6-   -6-   -6-   -2-   -7-   -6-   --4--   -4-   -1-
    -6-   -6-   -6-   -3-   -6-   -6-   --5--   -3-   -2-
    -6-   -6-   -8-   -4-   -8-   -6-   --6--   -4-   -3-
    ---   -8-   -8-   -4-   -6-   -8-   --6--   -3-   -3-
    -6-   -6-   -6-   -2-   ---   ---   -(4)-   ---   -1-


INTRO
-6----6----6----6--4----------------------------------------------------------|
-6----7----7----6--4----------------------------------------------------------|
-6----6----6----6--5----------------------------------------------------------|
-6---------8----6--6----------------------------------------------------------|
------------------------------------------------------------------------------|
------------------------------------------------------------------------------|

VERSE 1
------2----6----6--4----------------------------------------------------------|
-6----2----7----6--4----------------------------------------------------------|
-6----3----6----6--5----------------------------------------------------------|
-6----4----8----6--6----------------------------------------------------------|
------4----6----8--6----------------------------------------------------------|
-6----2-----------------------------------------------------------------------|

PRE-CHORUS
------2----6-------1----------------------------------------------------------|
-6----2----7----4--1----------------------------------------------------------|
-6----3----6----3--2----------------------------------------------------------|
-6----4----8----4--3----------------------------------------------------------|
------4----6----3--3----------------------------------------------------------|
-6----2------------1----------------------------------------------------------|

CHORUS
------2----6----6--4----------------------------------------------------------|
-6----2----7----6--4----------------------------------------------------------|
-6----3----6----6--5----------------------------------------------------------|
-6----4----8----6--6----------------------------------------------------------|
------4----6----8--6----------------------------------------------------------|
-6----2-----------------------------------------------------------------------|

VERSE 2
-------2----6----6--4---------------------------------------------------------|
--6----2----7----6--4---------------------------------------------------------|
--6----3----6----6--5---------------------------------------------------------|
--6----4----8----6--6---------------------------------------------------------|
-------4----6----8--6---------------------------------------------------------|
--6----2----------------------------------------------------------------------|

PRE-CHORUS
-------2----6-------1---------------------------------------------------------|
--6----2----7----4--1---------------------------------------------------------|
--6----3----6----3--2---------------------------------------------------------|
--6----4----8----4--3---------------------------------------------------------|
-------4----6----3--3---------------------------------------------------------|
--6----2------------1---------------------------------------------------------|

CHORUS
-------2----6----6--4---------------------------------------------------------|
--6----2----7----6--4---------------------------------------------------------|
--6----3----6----6--5---------------------------------------------------------|
--6----4----8----6--6---------------------------------------------------------|
-------4----6----8--6---------------------------------------------------------|
--6----2----------------------------------------------------------------------|

BRIDGE (Mraz plays A#m7 in the show i saw, but he has played A#m also or even C#/A# in ^)
--2----6----1----6----2----6------------1-------------------------------------|
--2----6----1----6----2----6----4----4--1-------------------------------------|
--3----6----2----6----3----6----3----3--2-------------------------------------|
--4----6----3----6----4----6----4----4--3-------------------------------------|
--4----8----3----8----4----8----3----3--3-------------------------------------|
--2----6----1----6----2----6------------1-------------------------------------|
       ^
VERSE 3
---------------------------------------------2----6----6--4-------------------|
----------------------------------------6----2----7----6--4-------------------|
----------------------------------------6----3----6----6--5-------------------|
----------------------------------------6----4----8----6--6-------------------|
----------------(6)----(4)-------------------4----6----8--6-------------------|
--(6)----(2)------------------(4)---(5)-6----2--------------------------------|

PRE-CHORUS
--6\--------------1-----------------------------------------------------------|
--7\---6\----4----1-----------------------------------------------------------|
--6\---6\----3----2-----------------------------------------------------------|
--8\---6\----4----3-----------------------------------------------------------|
--6\---------3----3-----------------------------------------------------------|
-------6\---------1-----------------------------------------------------------|

CHORUS
-------2----6----6--4---------------------------------------------------------|
--6----2----7----6--4---------------------------------------------------------|
--6----3----6----6--5---------------------------------------------------------|
--6----4----8----6--6---------------------------------------------------------|
-------4----6----8--6---------------------------------------------------------|
--6----2----------------------------------------------------------------------|

OUTRO
--6---------------------------------------------------------------------------|
--6---------------------------------------------------------------------------|
--6---------------------------------------------------------------------------|
--6---------------------------------------------------------------------------|
------------------------------------------------------------------------------|
------------------------------------------------------------------------------|