Archive, j >> jason mraz

geek in the pink tab

 Geek In The Pink
Standard Tuning
Capo on the 1st Fret

v: Down stroke
A: Upstroke
s: slide
h: hammer
x: mute


Intro
e-|---------------------------|------------|------------|
B-|---------------------------|------------|------------|
G-|---------------------------|------------|4-5-7s9-9-7-|
D-|-5h7-7-5h7-7-5h7-----------|X3 and then-|------------|
A-|---------------------------|------------|------------|
E-|---------------------------|------------|------------|

STRAIGHT into the verse:

-----Am7-------F7-----Dm7-------C----—E7-|

-----v-vAvA--v-vvv--v-v-v-A--Av-v--vvAvA

e-|--0-0000--x-xxx--5-5-5-x-----3---0000-|
B-|--5-5555--8-888--6-6-6-6-----5---0000-|
G-|--5-5555--9-999--5-5-5-5-----5---1111-|
D-|--5-5555--7-777--7-7-7-x-----5---0000-|
A-|--0-0000--8-8----5-5-5-x-5s3-3--22222-|
E-|--5-5-x---x-xxx--x-x-x-------x---0000-| ..aaaand so on

Verse and chorus are the same

For the pre-chorus or B-section (I Don't care what you might think about me ...)
he leaves out the Dm7 chord and rams the E7 chord down 5 times like:

without me , if you wa-a-aa-a-a-aaant!

   Dm7 --------------------E7-|

e-|5----5-x----------------0-0--0-0-0*|
B-|6----6------------------0-0--0-0-0*|
G-|5----5------------------1-1--1-1-1*|
D-|7----x------------------0-0--0-0-0*|
A-|5----x5-----------------2-2--2-2-2*|
E-|-------x----------------0-0--0-0-0*| *=let ring and cut off...

Version 2

Standard Tuning
No Capo

Intro

----------------------------------------------------|
----------------------------------------------------|
-----------------------------------4--5--7--7--9----|
--5h7-7-x-5h7-7-x-5-7--x3--7------------------------|
----------------------------------------------------|
----------------------------------------------------|
--5----------5---------0------------------------------|
--5----8-----6----5----0------------------------------|
--5----9-----5----5----1------------------------------|
--5----7-----7----5----0------------------------------| Verse
--x----8-----5----3----2------------------------------|
--5--------------------0------------------------------|
Am7    FM9  Dm7   C    E7

With the bridge before the chorus, just miss out the C.

The middle section that starts with \\" I am more than you're thinking\\"  is:

------0---0---0-------------|
--1---1---0---1-------------|
--2---0---1---0-------------| x2 (play  only second
--3---2---0---2--------2----| time)
--x---0---2---0--2--3-------|
--1-------0-----------------|