Archive, j >> jason mraz

im yours intro tab

 -------------------------------------------------------------------------------
                             I'm Yours (Intro) - Jason Mraz
-------------------------------------------------------------------------------
Tabbed by: Jon4sLuv3r

Tuning: Standard

I know there is already an intro tab for this song but it's only rated 2 stars so i 
this one will do better.
I was just playing around with my guitar when i plucked the first notes to this song by 
and the idea to finish the intro sparked.
so ya heeerrreeee:
pluck the strings and slide at certain spots

Intro:

e|--7/9--7~-----7/9--2~-----2/4-------------------------------|
B|--7/9--7~-----7/9--2~-----2/4--4~-----4/5--0~---------------|
G|-------------------------------4~-----4---------------------|
D|-------------------------------------------4~---------------|
A|------------------------------------------------------------|
E|------------------------------------------------------------| 

Related Files