Archive, j >> jason mraz

im yours ver2 tab

 Standard tuning and
CAPO 4

The Chords through the whole Song except a few parts are:
G D Em C

I play them like this -so I can play the chords and the Intro melody on one guitar- 
the Capo4:


d=down
u=up

Quickly release the up's and actually just play the e, B, and G string..

                                     alternatively you could play the open D
                                      chord here cause it's easier to do
         d u  d u  d u  (d u)         d  u   d  u   d  u   (d  u)
e-7/9----7-7--7-7--7-7--(7-7)-7/9-----9--9---9--9---9--9---(9--9)---|
B-7/9-7--7-7--7-7--7-7--(7-7)-7/9-11--11-11--11-11--11-11--(11-11)--|
G--------8-8--8-8--8-8--(8-8)---------11-11--11-11--11-11--(11-11)--|
D--------9-9--9-9--9-9--(9-9)---------11-11--11-11--11-11--(11-11)--|
A--------9-9--9-9--9-9--(9-9)------9--9---9--9--9---9--9---(9--9)---|
E-----7--7-7--7-7--7-7--(7-7)---------------------------------------|
p.m............................................................


0=4 because of the capo

         d u  d u  d u  d u             d u  d u  d u   d u
e-7/9----0-0--0-0--0-0--(0-0)-----------7-7--7-7--7-7--(7-7)--|
B-7/9-0--0-0--0-0--0-0--(0-0)-----------9-9--9-9--9-9--(9-9)--|
G--------0-0--0-0--0-0--(0-0)----8/9----9-9--9-9--9-9--(9-9)--|
D--------6-6--6-6--6-6--(6-6)--------9--9-9--9-9--9-9--(9-9)--|
A--------6-6--6-6--6-6--(6-6)--------7--7-7--7-7--9-7--(9-9)--|
E-----0--0-0--0-0--0-0--(0-0)---------------------------------|
p.m..........................................................


As you see, all the tones of the intro melody are part of the chords, but if you want 
it's easier) play it with a second guitar:


e--7/9-------7/9-------7/9-----------------------|
B--7/9-7-----7/9-7-----7/9-----------------------|
G--------------------------8------8/9------------|  x2
D-------------------------------------9----------|
A------------------------------------------------|
E------------------------------------------------|


     G
Well you dawned on me and you bet I felt it,
   D
I tried to be chill but you're so hot that I melted,
  Em
I fell right through the cracks,
C
And now I'm tryin to get back....

            G
Before the cool dun run out, Ill be givin it my bestest
   D
Nothin's gonna stop me but divine intervention
    Em
I reckon its again my turn,
    C
To Win some or learn some....


CHORUS:

G            D
I wont hesitate
            Em
No more, No more
            C
It can not wait, I'm Yours


*repeat intro part*


Well open up your mind and see like me
open up your plans and damn you're free
look into your heart and you'll find love love love
listen to the music at the moment maybe sing with me
Ah, la peaceful melody                                       add chord>
It's your god forsaken right to be loved loved loved loved Loved

So, i won't hesitate no more,
no more, it cannot wait i'm sure
there's no need to complicate our time is short
this is our fate, i'm yours

*scat*

This scattin part is different:

G D Em D C C A7
G D Em D C C A7

and the chords come \\" double time\\"