Archive, j >> jason mraz

life is wonderful intro tab

              Jason Mraz--Life Is Wonderful(Intro)
                 Tuning: Drop-D (DADgbe)
              Tabbed By: Alden Schulte (6/17/06)

 I Tabbed this song for Lindsey, because she likes it.
-------------------------------------------------------------
                           Intro
--------------------------------------------------------------
                                     (those are 11's)
E|----------------------------------------------------------|
B|----------------------------------------------------------|
G|--8---------8------8---------8-------9-------------9------|
D|--6-------6-6-6----6-------6-6-6-----11---------11-11-11--|
A|----------------------------------------------------------|
D|-6----6-6-------4/6----6-6---------11-----11-11-----------|


|-------------------------------------------------------------|
|-------------------------------------------------------------|
|-----9-------------9----------9---------9------9--------9----|
|-----11---------11-11-11------9-------9-9-9----9------9-9-9--|
|----------------------------7----7-7---------7----7-7--------|
|-9/11------11-11---------------------------------------------|


|---------------------|
|---------------------|
|---11--------11----6-| and then it repeats.
|----9-------9-9-9--4-|
|-------------------4-|
|--9-----9-9--------4-|

the second time it ends it does this

|-------------|
|----------7--|
|--------6----|
|------4------|
|--4-4--------|
|--4----------|