Archive, j >> jason mraz

life is wonderful tab

 When Jason Mraz play this live its without a capo but
i noticed on the record when he plays it, it sounds 
higher so you might want to put a capo on the 2nd fret
if your playing along with the song from the record

Verse
e|----------------------------------------------------------------|
b|-------------------------------------(3)-----(3)-----(3)-----(3)|
g|--------------------------------------4-------4-------4-------4-|
d|-----4-------4-------4-------4--------4-------4-------4-------4-|
a|-----4-------4-------4-------4-----2-----2-2-----2-2-----2-2----|
e|--2-----2-2-----2-2-----2-2-----2-------------------------------|

e|----------------------------------------------------------------|
b|-------(6)-----(6)-----(6)-----(6)------------------------------|
g|--------7-------7-------7-------7-------(6)-----(6)---(1)-------|
d|--------7-------7-------7-------7--------7-------7-----2--------|
a|--2--5-----5-5-----5-5-----5-5-----5-----7-------7-----2--------|
e|--------------------------------------5-----5-5-----0-----------|

Chorus/Outro
e|-----------------------------------------------------------------|
b|---------------------(3)-----(3)----------------------2-------2--|
g|----------------------4-------4-------1-------1-------2-------2--|
d|-----4--------4-------4-------4-------2-------2-------2-------2--|
a|-----4--------4----2-----2-2----------2-------2--0-0-----0-0-----|
e|--2-----2-2------2---------------0-0-----0-0---------------------|

End On
(let it ring)
|--2--|
|--2--|
|--2--|
|--4--|
|--4--|
|--2--|

This tab should be correct any questions email me at Laurin1289@sbcglobal.net